Allister - Better Late Than Forever Chords & Tabs

 

Better Late Than Forever Chords & Tabs

Allister Chords & Tabs

Version: 1 Type: Tab 0 ratings
1 star 2 stars 3 stars 4 stars 5 stars
comments

Better Late Than Forever Tab

Allister - Better Late than Forever
By:Andrew Mcshan(Guitarguyx182@aol.com)

Intro
e|---------------------------------------------------------------------------|
B|-5-3-2-3-2---5-3-2-3-5---5-3-2-3-2-----------------------------------------|
G|-----------2-----------2-----------2--4-6-4-2--1/2-------------------------|
D|---------------------------------------------------------------------------|
A|---------------------------------------------------------------------------|
E|---------------------------------------------------------------------------|

Verse " Im writing this song to tell you ...."
e|---------------------------------------------------------------------------|
B|---------------------------------------------------------------------------|
G|-------------6----------7------------7-7--------------6----7-----9---------|
D|-7-----------6----------7------------7-7------7-------6----7-----9---------|
A|-7-----------4----------5------------5-5------7-------4----5-----7---------|
E|-5--------------------------------------------5----------------------------|
[ Tab from: http://www.guitartabs.cc/tabs/a/allister/better_late_than_forever_tab.html ]
Pre Chorus "Hard to keep my balance when you look..."
e|---------------------------------------------------------------------------|
B|---------------------------------------------------------------------------|
G|------------7-------------------9------------------7--------9--------------|
D|-4----------7----------7--------9---------4--------7--------9--------------|
A|-4----------5----------7--------7---------4--------5--------7--------------|
E|-2---------------------5------------------2--------------------------------|

Chorus  "so many reasons i need something more to.."
e|---------------------------------------------------------------------------|
B|---------------------------------------------------------------------------|
G|--------------6-------7-------9--------7-------9---------------------------|
D|--7-----------6-------7-------9--------7-------9---------------------------|
A|--7-----------4-------5-------7--------5-------7---------------------------|
E|--5------------------------------------------------------------------------|

Bridge
e|---------------------------------------------------------------------------|
B|---------------------------------------------------------------------------|
G|-----9-9-9------9-4-2-------9-9-9-----9-9-9-9-7-7-7-7--------4-------------|
D|-4---x-x-x--4---x-x-2---4---x-x-x--4--x-x-x-x-x-x-x-x--4-4-4-4-------------|
A|-4---7-7-7--4---7-2-----4---7-7-7--4--7-7-7-7-5-5-5-5--4-4-4-2-------------|
E|-2----------2-----------2----------2-------------------2-2-2---------------|
Comments