All Used Up - Just Like Me Chords & Tabs

 

Just Like Me Chords & Tabs

All Used Up Chords & Tabs

Version: 1 Type: Tab 0 ratings
1 star 2 stars 3 stars 4 stars 5 stars
comments

Just Like Me Tab

   
Just Like Me
All Used Up

Froggy - Drummer boy-
Blake  - Hairy Bass Gimp-
Shelton (Rick) - Yellow boy on guitar and vocals-


INTRO (clean)
b-2-0-2-0--2-3-2-3--2-0-2-0--2-3-2--2--2-3-2-3-2-0
g-2-2-2-2--2-2-2-2--2-2-2-2--2-2-2-2--2-----------
d-2-2-2-2-----------2-2-2-2-------0---------------
[ Tab from: http://www.guitartabs.cc/tabs/a/all_used_up/just_like_me_tab.html ]
verse (clean)
b-2-0-2-0--2-3-2-3--2-0-2-0--2-3-2-3
g-2-2-2-2--2-2-2-2--2-2-2-2--2-2-2-2
d-2-2-2-2-----------2-2-2-2---------

bridge/pre-chorus (clean)

b---2-2-2--0-0-0---2-3-2-3-2--3-3-3-3
g--2-2-2--2-2-2---2--2--------2-2-2-2
d-2------2-------0-------------------

Chorus (distortion)

A5 E5 B5 D5

interluded is chorus palm muted
outro is intro in distortion

Comments