All State Champion - Greatest Chords & Tabs

 

Greatest Chords & Tabs

All State Champion Chords & Tabs

Version: 1 Type: Tab 0 ratings
1 star 2 stars 3 stars 4 stars 5 stars
comments

Greatest Tab

All State Champion is an awesome emocore band from Canada that I saw open for Sparta.
Very indi, and not as popular in the States as they are from home.

It really hurts that there hasn't been any All State Champion Tabs yet. This is a
relatively easy song. Everything is essentially a variation of these chords. The intro
part is on top with the chorus on the bottom. This is just about everything in the song.
Listen to the timing. And hopefully some people with a better ear start tabbing out the
rest of their stuff.
[ Tab from: http://www.guitartabs.cc/tabs/a/all_state_champion/greatest_tab.html ]
/------------------------------------------------------------------------------/
/------------------------------------------------------------------------------/
/--9-9-12-9--x4--7-7-7---------------------------------------------------------/
/----------------7-7-7--x4-----------------------------------------------------/
/----------------5-5-5---------------------------------------------------------/
/------------------------------------------------------------------------------/


/------------------------------------------------------------------------------/
/------------------------------------------------------------------------------/
/--2--5--4--7------------------------------------------------------------------/
/--2--5--4--7------------------------------------------------------------------/
/--0--3--2--5------------------------------------------------------------------/
/------------------------------------------------------------------------------/
Comments