All But The Bird - Indestructible Chords & Tabs

 

Indestructible Chords & Tabs

All But The Bird Chords & Tabs

Version: 1 Type: Tab 0 ratings
1 star 2 stars 3 stars 4 stars 5 stars
comments

Indestructible Tab

   
Song: Indestructible
Artist: All But the Bird
Album: Unknown




Part A

E-0--------------0--------------2--------------2-----------------
B-1--------------1--------------3--------------3-----------------
G-2--------------2--------------2--------------2-----------------
D-2--------------2--------------0--------------0-----------------
A-0--------------x--------------x--------------x-----------------
E----------------3--------------2--------------1-----------------
  1    2    3    1    2    3    1    2    3    1    2    3

Part B
[ Tab from: http://www.guitartabs.cc/tabs/a/all_but_the_bird/indestructible_tab.html ]
E--8------------------------2----3-------------------------------
B--10-----------------------4----3-------------------------------
G--10-----------------------4----4-------------------------------
D--10-----------------------4----5-------------------------------
A--8------------------------2----5-------------------------------
E--------------------------------3-------------------------------
   1    2    3    1    2    3    1    2    3    1    2    3 


Part C

E--1--------------3--------------0--------------0----------------
B--3--------------3--------------0--------------2----------------
G--2--------------2--------------0--------------0----------------
D--0--------------0--------------2--------------2----------------
A--------------------------------2--------------0----------------
E--------------------------------0-------------------------------
   1    2    3    1    2    3    1    2    3    1    2    3


Song Pattern:
4 x A
4 x B
4 x A
4 x B
4 x A
4 x B
4 x A
4 x B
8 x C – guitar solo over last 4 C’s
16 x A – guitar solo over first 8 A’s 

-tabbed by wickedbrethren54
Comments