All-american Rejects - Your Star Chords & Tabs

 

Your Star Chords & Tabs

All-american Rejects Chords & Tabs

Version: 3 Type: Tab 0 ratings
1 star 2 stars 3 stars 4 stars 5 stars
comments

Your Star Tab

   
All-American Rejects
Your Star
[ Tab from: http://www.guitartabs.cc/tabs/a/all_american_rejects/your_star_tab_ver_3.html ]
Main Guitar Riff
(During verses)
E|-------------------------------------------------|
B|-------------------------------------------------|
G|-------------------------------------------------|
D|-7-7-7-7-7-7-7-7-7-7-7-7-4-4-4-4-4-4-6-6-6-6-6-6-|
A|-5-5-5-5-5-5-4-4-4-4-4-4-2-2-2-2-2-2-4-4-4-4-4-4-|
E|-------------------------------------------------|
(During Intro of song and intro of verses)
E|-------------------------------------------------|
B|-------------------------------------------------|
G|-------------------------------------------------|
D|-7-7-7-7-7-7-9-9-9-9-9-9-4-4-4-4-4-4-6-6-6-6-6-6-|
A|-5-5-5-5-5-5-7-7-7-7-7-7-2-2-2-2-2-2-4-4-4-4-4-4-|
E|-------------------------------------------------|


Solo
E|-------------------------------------------|
B|-------------7b----------------------------|
G|-----------7-------------------------------|
D|-----------------9b-9b-9b-9b-7-6-9-7p6h7---|
A|-/7/5/3--5-------------------------------7-|
E|-------------------------------------------|

E|---------------------------|
B|---7b/10-11b-11b-10-9h10p9-|
G|-7-------------------------|
D|---------------------------|
A|---------------------------|
E|---------------------------|
Comments