All American Rejects - To Far Gone Chords & Tabs

 

To Far Gone Chords & Tabs

All American Rejects Chords & Tabs

Version: 1 Type: Tab 3 ratings
1 star 2 stars 3 stars 4 stars 5 stars
comments

To Far Gone Tab

Artist: The All-American Rejects
	Song  : To Far Gone
	Tabbed by Dean Willeford
	e-mail: d_willeford@netzero.com




This is my first tab so if there are any mistakes email... 
	  
                       Intro 
	e|-----------------------------------------|
	b|----0-------0-------0-----------0--------|
	g|-------2-------2--------2----------2-----|
	d|---2-------------------------------------|
	a|-0-------0--------0---------0------------|
	E|-----------------------------------------| 

[ Tab from: http://www.guitartabs.cc/tabs/a/all_american_rejects/to_far_gone_tab.html ]
	
	  2nd Part of Intro
	e|----------------------------------------------------|
	b|-------0--------0-----------0------------0----------|
	g|-----2-------------2-----------2-------------2------|
	d|--0--------0------------0-----------0---------------|
	a|----------------------------------------------------|
	E|----------------------------------------------------|
                         3rd part of into
	e|-----------------------------------------------------------|
	b|-----------0------0---------------0-------0----------------|
	g|--------2-------------2---------2-------------2------------|
	d|-----0-----------------------0-----------------------------|
	a|-----------------------------------------------------------|
	E|--2-----------2-----------0-----------0--------------------| x2



	  4th part of intro
	e|----------------------------------------------------|
	b|-------0--------0-----------0------------0----------|
	g|-----2-------------2-----------2-------------2------|
	d|--0--------0------------0-----------0---------------|
	a|----------------------------------------------------|
	E|----------------------------------------------------|


	
	  Chorus
	e|-------------------------------------------------------------------|
	b|-------------------------------------------------------------------|
	g|-----------------7----7--------------------------------------------|
	d|----4---4--------7----7------7-----7-------2-----2-----------------|
	a|----4---4--------5----5------7-----7-------2-----2-----------------|
	E|----2---2--------------------5-----5-------0-----0-----------------|
                         After this part play the intro part again...
	 

	Thats pretty much the song... Its really not to hard... Hope you enjoy!! 
Comments