All American Rejects - Swing Swing Chords & Tabs

 

Swing Swing Chords & Tabs

All American Rejects Chords & Tabs

Version: 5 Type: Tab 0 ratings
1 star 2 stars 3 stars 4 stars 5 stars
comments

Swing Swing Tab

Yep.... its a good song no one has it tabbed on here so.......here 
ya go

Swing, Swing... All American Rejects

Intro
e--3-3--3---3-3--3---3-3--3---3-3--3-
B--3-3--3---3-3--3---3-3--3---3-3--3-
G--0-0--0---2-2--2---0-0--0---0-0--0-
D--0-0--0---0-0--0---2-2--2---2-2--2-
A--2-2--2---0-0--0---2-2--2---3-3--3-
E--3-3--3---2-2--2---0-0--0---------- x' 1

e--------------------------------------------------------------------
B--------------------------------------------------------------------
G--------------------------------------------------------------------
D------------------7-7-7-7-7-7-7-7-----------------5-5-5-5-5-5-5-5---
A--5-5-5-5-5-5-5-5-5-5-5-5-5-5-5-5-2-2-2-2-2-2-2-2-3-3-3-3-3-3-3-3---
E--3-3-3-3-3-3-3-3-----------------0-0-0-0-0-0-0-0-------------------
                                                             x's 2


Verse
e--3-3--3---3-3--3---3-3--3---3-3--3--
B--3-3--3---3-3--3---3-3--3---3-3--3--
G-------------------------------------
D-------------------------------------
A-------------------------------------
E------------------------------------- x's 2

[ Tab from: http://www.guitartabs.cc/tabs/a/all_american_rejects/swing_swing_tab_ver_5.html ]
Pre-Chorus
e-----------------------------------------------------------------
B-----------------------------------------------------------------
G-----------------------------------------------------------------
D--------------------------------------------------5-5-5-5-5-5-5-5
A--5-5-5-5-5-5-5-5-5-5-5-5-5-5-5-5-2-2-2-2-2-2-2-2-3-3-3-3-3-3-3-3
E--3-3-3-3-3-3-3-3-3-3-3-3-3-3-3-3-0-0-0-0-0-0-0-0----------------
                                                             x's 2
e----------------------------------3hold------
B------3---5-3---3-----3---7-3---3------------
G----0---0-----0-----0---0-----0--------------
D---------------------------------------------
A--2---------------3--------------------------
E---------------------------------------------

Chorus
e--------------------------------------------------------------------
B--------------------------------------------------------------------
G--------------------------------------------------------------------
D------------------7-7-7-7-7-7-7-7-----------------5-5-5-5-5-5-5-5---
A--5-5-5-5-5-5-5-5-5-5-5-5-5-5-5-5-2-2-2-2-2-2-2-2-3-3-3-3-3-3-3-3---
E--3-3-3-3-3-3-3-3-----------------0-0-0-0-0-0-0-0-------------------
                                                              x's 2



--well there you go... not the whole thing but it’s a start... 
     Hello Tristan and Joe
Comments