All American Rejects - Swing Swing Chords & Tabs

 

Swing Swing Chords & Tabs

All American Rejects Chords & Tabs

Version: 14 Type: Tab 0 ratings
1 star 2 stars 3 stars 4 stars 5 stars
comments

Swing Swing Tab

   
-------------------------------------------------------------------------------
			     Swing Swing - All-american Rejects
-------------------------------------------------------------------------------

Tabbed by: Scatman
Email: Pavel_Israel@Hotmail.com

Tuning: Standart EADGBe

Intro:
  G        D        Em       C           G        D        Em       C
e|----------------------------------------------------------------------------
b|----------------------------------------------------------------------------
g|----------------------------------------------------------------------------
d|-5-5--5---0-0--0---2-2--2---10-10--10---5-5--5---0-0--0---2-2--2---10-10--10
a|-5-5--5---0-0--0---2-2--2---10-10--10---5-5--5---0-0--0---2-2--2---10-10--10
E|-3-3--3---2-2-2---0-0-0---8--8--8----3-3--3---2-2-2---0-0-0---8--8--8-


Verse:
      G          D          Em         C
e|----------------------------------------------------------------------
b|----------------------------------------------------------------------
g|----------------------------------------------------------------------
d|-----5-5--5-----5-5--5-----5-5--5-----10-10--10-----------------------
a|-----5-5--5-----5-5--5-----5-5--5-----10-10--10-----------------------
E|-----3-3--3-----2-2--2-----0-0--0-----8--8---8------------------------


Chorus:
  G                 D                 Em                C
e|----------------------------------------------------------------------
b|----------------------------------------------------------------------
g|-------------------7-7-7-7-7-7-7-7---------------------5-5-5-5-5-5-5-5
d|-5-5-5-5-5-5-5-5---7-7-7-7-7-7-7-7---2-2-2-2-2-2-2-2---5-5-5-5-5-5-5-5
a|-5-5-5-5-5-5-5-5---5-5-5-5-5-5-5-5---2-2-2-2-2-2-2-2---3-3-3-3-3-3-3-3
E|-3-3-3-3-3-3-3-3---------------------0-0-0-0-0-0-0-0------------------


Interlude:
  G                 G                 Em                C
e|----------------------------------------------------------------------
b|----------------------------------------------------------------------
g|-------------------------------------------------------5-5-5-5-5-5-5-5
d|-5-5-5-5-5-5-5-5---5-5-5-5-5-5-5-5---2-2-2-2-2-2-2-2---5-5-5-5-5-5-5-5
a|-5-5-5-5-5-5-5-5---5-5-5-5-5-5-5-5---2-2-2-2-2-2-2-2---3-3-3-3-3-3-3-3
E|-3-3-3-3-3-3-3-3---3-3-3-3-3-3-3-3---0-0-0-0-0-0-0-0------------------

e|---------------------
b|---------------------
g|--hold------hold-----
d|---10--------10------
a|---10--------10------
E|---9---------8-------
   I'll find someone new

[ Tab from: http://www.guitartabs.cc/tabs/a/all_american_rejects/swing_swing_tab_ver_14.html ]
Solo:
e|---------------------------------------15------14-12-------------------
b|-8/15-15-15-15-15-15-13-12--12-12-13--------12------12-12/13-----------
g|-------------------------------------12--------------------------------
d|-----------------------------------------------------------------------
a|-----------------------------------------------------------------------
E|-----------------------------------------------------------------------

e|----------------------------------------15-----------------------------
b|-15-15-15-15-15-15--13-12--13-12--13-----------12----------------------
g|-------------------------------------12------12---11-12/14-12----------
d|-----------------------------------------------------------------------
a|-----------------------------------------------------------------------
E|-----------------------------------------------------------------------

Outro:
e|----------------------------------------------------------------------
b|----------------------------------------------------------------------
g|-9-9--7-7--HOLD------------HOLD----------------------9-9--7-7---------
d|-9-9--7-7---9---------------10-----------------------9-9--7-7---------
a|-7-7--5-5---9---------------10-----------------------7-7--5-5---------
E|------------7---------------8-----------------------------------------
  Bury me  (you thought your problems were gone)        Carry  me

e|----------------------------------------------------------------------
b|----------------------------------------------------------------------
g|----------------------------------------------------------------------
d|---10-10-10-10-10-10-10-10-10-10-10-10-10-10-10-10--------------------
a|---10-10-10-10-10-10-10-10-10-10-10-10-10-10-10-10--------------------
E|---8--8--8--8--8--8--8--8--8--8--8--8--8--8--8--8---------------------
       (Away     Away     Away...................)


Intro(x1)
Chorus(x2)
Verse(x2)
Interlude(x2)
Chorus(x2)
Verse(x2)
Interlude(x2)
Chorus(x2)
Solo(x1)
Outro(x1)
Chorus(x6): fade out

| /  slide up
| \  slide down
| h  hammer-on
| p  pull-off
| ~  vibrato
| +  harmonic
| x  Mute note

===============================================================================

"Swing Swing" 

Days swiftly come and go.
I'm dreaming of her
She's seeing other guys
Emotions they stir
The sun is gone.
The nights are long
And I am left while the tears fall.

Did you think that I would cry,
on the phone?
Do you know what it feels like,
being alone?
I'll find someone new

Swing, Swing, Swing from the tangles of
My heart is crushed by a former love
Can you help me find a way
To carry on again.

Wish cast into the sky
I'm moving on
Sweet beginnings do arise
She knows I was wrong
The notes are old,
They bend, they fold
and so do I to a new love.

Bury me
(you thought your problems were gone)
Carry me
(away. away, away...)
Comments