All American Rejects - Swing Swing Chords & Tabs

 

Swing Swing Chords & Tabs

All American Rejects Chords & Tabs

Version: 1 Type: Tab 8 ratings
1 star 2 stars 3 stars 4 stars 5 stars
comments

Swing Swing Tab

   
	Artist: The All-American Rejects
	Song  : Swing Swing
	Tabbed by Shane Goss
	e-mail: iron_rockstar@hotmail.com


	  Intro 
	e|-----------------------------------|
	b|-----------------------------------|
	g|-----------------------------------|
	d|-5-5--5---4-4--4---2-2--2---5-5--5-|
	a|-5-5--5---4-4--4---2-2--2---5-5--5-|
	E|-----------------------------------| x2


	
	  2nd Part of Intro
	e|---------------------------------|
	b|---------------------------------|
	g|---------------------------------|
	d|-5-5-5-5-5-5-5-5-4-4-4-4-4-4-4-4-|
	a|-5-5-5-5-5-5-5-5-4-4-4-4-4-4-4-4-|
	E|-3-3-3-3-3-3-3-3-2-2-2-2-2-2-2-2-|

	e|---------------------------------|
	b|---------------------------------|
	g|-----------------5-5-5-5-5-5-5-5-|
	d|-2-2-2-2-2-2-2-2-5-5-5-5-5-5-5-5-|
	a|-2-2-2-2-2-2-2-2-3-3-3-3-3-3-3-3-|
	E|-0-0-0-0-0-0-0-0-----------------| x2



	  Verse
	e|-----------------------------------|
	b|-----------------------------------|
	g|-0-0--0---0-0--0---0-0--0---0-0--0-|
	d|-5-5--5---5-5--5---5-5--5---5-5--5-|
	a|-----------------------------------|
	E|-----------------------------------| x2


	
	  1st Part of Chorus
	e|---------------------------------|
	b|---------------------------------|
	g|---------------------------------|
	d|-5-5-5-5-5-5-5-5-4-4-4-4-4-4-4-4-|
	a|-5-5-5-5-5-5-5-5-4-4-4-4-4-4-4-4-|
	E|-3-3-3-3-3-3-3-3-2-2-2-2-2-2-2-2-|
	  p.m.=============================

	e|---------------------------------|     |------------------|
	b|---------------------------------|     |------------------|
	g|-----------------5-5-5-5-5-5-5-5-|     |-----5~~~---------|
	d|-2-2-2-2-2-2-2-2-5-5-5-5-5-5-5-5-|     |-5~~~5~~~---5-5---|
	a|-2-2-2-2-2-2-2-2-3-3-3-3-3-3-3-3-|     |-5~~~3~~~---3-3-0-|
	E|-0-0-0-0-0-0-0-0-----------------| x2	 |-3~~~-------------|
	  p.m.=============================


	
	  2nd Part of Chorus
	e|---------------------------------|
	b|---------------------------------|
	g|---------------------------------|
	d|-5-5-5-5-5-5-5-5-4-4-4-4-4-4-4-4-|
	a|-5-5-5-5-5-5-5-5-4-4-4-4-4-4-4-4-|
	E|-3-3-3-3-3-3-3-3-2-2-2-2-2-2-2-2-|
[ Tab from: http://www.guitartabs.cc/tabs/a/all_american_rejects/swing_swing_tab.html ]
	e|---------------------------------|
	b|---------------------------------|
	g|-----------------5-5-5-5-5-5-5-5-|
	d|-2-2-2-2-2-2-2-2-5-5-5-5-5-5-5-5-|
	a|-2-2-2-2-2-2-2-2-3-3-3-3-3-3-3-3-|
	E|-0-0-0-0-0-0-0-0-----------------| x2


	  Verse 
	  Chorus 

	
	  Solo
	
	e|-/10-10-10-10-10-10-8-7-7-7-7-7-7-7-7-8----|
	b|----------------------------------------8~-|
	g|-------------------------------------------|
	d|-------------------------------------------|
	a|-------------------------------------------|
	E|-------------------------------------------|


	e|-15---12/15-14-12---15--14-12---12---12----|
	b|----8------------------------------8----8--|
	g|-------------------------------------------|
	d|-------------------------------------------|
	a|-------------------------------------------|
	E|-------------------------------------------|

	e|-------------------------------------------|
	b|-10-12/------------------------------------|
	g|-------------------------------------------|
	d|-------------------------------------------|
	a|-------------------------------------------|
	E|-------------------------------------------|

	
	  after solo thingy
	e|-------------3--------------|  these two are
	b|-------------3--------------|  played at the
	g|-------------0--------------|	 same time....
	d|-2-2---4-4---0----2-2---4-4-|
	a|-2-2---4-4---2----2-2---4-4-|
	E|-0-0---2-2---3----0-0---2-2-|

	                 e|-------------------------------------------|
	                 b|-12-12-10-10-8-8-7-12-12-10-10-8-8-10------|
       	                 g|-------------------------------------------|
	                 d|-------------------------------------------|
	                 a|-------------------------------------------|
	                 E|-------------------------------------------|


	
	  then this again
	e|---------------------------------|
	b|---------------------------------|
	g|---------------------------------|
	d|-5-5-5-5-5-5-5-5-4-4-4-4-4-4-4-4-|
	a|-5-5-5-5-5-5-5-5-4-4-4-4-4-4-4-4-|
	E|-3-3-3-3-3-3-3-3-2-2-2-2-2-2-2-2-|

	e|---------------------------------|
	b|---------------------------------|
	g|-----------------5-5-5-5-5-5-5-5-|
	d|-2-2-2-2-2-2-2-2-5-5-5-5-5-5-5-5-|
	a|-2-2-2-2-2-2-2-2-3-3-3-3-3-3-3-3-|
	E|-0-0-0-0-0-0-0-0-----------------| x2


	  then do the solo again and then
	  finish it off by repeating this riff
	e|---------------|
	b|-5h7-8/10-8-10-|
	g|---------------|
	d|---------------|
	a|---------------|
	E|---------------|	

		well i hope ya'll can do that or whatever, later




Comments