All-american Rejects - Move Along Chords & Tabs

 

Move Along Chords & Tabs

All-american Rejects Chords & Tabs

Version: 1 Type: Tab 0 ratings
1 star 2 stars 3 stars 4 stars 5 stars
comments

Move Along Tab

----------------------------------------------------------------------------
			     Move Along- Band Name
----------------------------------------------------------------------------
Tabbed by:vampiros
Email: vampires_will_never_hurt_you82@yahoo.com
 This is my first tab so be nice
Tuning:Drop D
intro & verse
e|-------------------------------------------------------------------------|
B|-11------9-----11-----11-------------------------------------------------|
G|-12-x12-10-x12-12-x12-15-x12---------------------------------------------|
D|-13-----12-----13-----13-------------------------------------------------|
A|-------------------------------------------------------------------------|
D|-------------------------------------------------------------------------|

pre-chorus 
e|-------------------------------------------------------------------------|
B|-------------------------------------------------------------------------|
G|-------------------------------------------------------------------------|
D|-------------------------------------------------------------------------|
A|-------------------------------------------------------------------------|
D|-8-8/6-6/4-4/3-----------------------------------------------------------|
[ Tab from: http://www.guitartabs.cc/tabs/a/all_american_rejects/move_along_tab.html ]
chorus
e|-------------------------------------------------------------------------|
B|-------------------------------------------------------------------------|
G|-5-----3-----------------------------------------------------------------|
D|-5-x8--3-x16--6----------------------------------------------------------|
A|-3-----1------6-x8-------------------------------------------------------|
D|--------------6----------------------------------------------------------|

repeat intro

verse 2
e|-------------------------------------------------------------------------|
B|--------------11------9-------11------11---------------------------------|
G|--------------12-x12--10-x12--12-x12--15-x12-----------------------------|
D|-10-----8-----13------12------13------13---------------------------------|
A|-10-x4--8-x4-------------------------------------------------------------|
D|-10-----8----------------------------------------------------------------|

pre-chorus
e|-6-x10--3----------------------------------------------------------------|
B|-------------4---4-------------------------------------------------------|
G|------------3-3-3-3------------------------------------------------------|
D|-----------5---5---5-----------------------------------------------------|
A|-------------------------------------------------------------------------|
D|-------------------------------------------------------------------------|

there ya go it may not be the best but... its here
any comments e-mail me
Comments