All-american Rejects - Dirty Little Secret Chords & Tabs

 

Dirty Little Secret Chords & Tabs

All-american Rejects Chords & Tabs

Version: 3 Type: Tab 0 ratings
1 star 2 stars 3 stars 4 stars 5 stars
comments

Dirty Little Secret Tab

Song: "Dirty Little Secret"
Band: All-American Rejects, The
Album: Move Along

Tuning: Standard

Lead Guitar: Nick Wheeler
Rhythm Guitar: Mike Kennerty


Rhythm Guitar

Intro: (x2)
e|------------------------|
B|------------------------|
G|------------------------|
D|--8-8-8-8--6-6p5-6p5----|
A|--8---8--------------6--|
E|--6---6-----------------|

Pre-Verse: (x2)
e|------------------------------------|-------------------|
B|------------------------------------|-------------------|
G|------------------------------------|-------------------|
D|--8-8-8-8-8-8-8-8--6-6-6-6-6-6-6-6--|--6-6-6-6-6-6-6-6--|
A|--8-8-8-8-8-8-8-8--6-6-6-6-6-6-6-6--|--6-6-6-6-6-6-6-6--|
E|--6-6-6-6-6-6-6-6--4-4-4-4-4-4-4-4--|--4-4-4-4-4-4-4-4--|

Verse: Lead Guitar Only

Pre-Chorus:
e|--------------------------------------------------|------------------|
B|--------------------------------------------------|------------------|
G|--5--5-5--5--5-5------------------8--8-8--8--8-8--|-1010101010101010-|
D|--5--5-5--5--5-5--5--5-5--5--5-5--8--8-8--8--8-8--|-1010101010101010-|
A|--3--3-3--3--3-3--5--5-5--5--5-5--6--6-6--6--6-6--|-8-8-8-8-8-8-8-8--|
E|------------------3--3-3--3--3-3------------------|------------------|

Chorus: (x2)
e|---------------------------------------------------------------------|
B|---------------------------------------------------------------------|
G|-------------------8-8-8-8-8-8-8-8-----------------------------------|
D|--8-8-8-8-8-8-8-8--8-8-8-8-8-8-8-8--5-5-5-5-5-5-5-5--3-3-3-3-3-3-3-3-|
A|--8-8-8-8-8-8-8-8--6-6-6-6-6-6-6-6--5-5-5-5-5-5-5-5--3-3-3-3-3-3-3-3-|
E|--6-6-6-6-6-6-6-6-------------------3-3-3-3-3-3-3-3--1-1-1-1-1-1-1-1-|

e|---------------|
B|---------------|
G|--8--8--8--8~--|
D|--8--8--8--8~--|
A|--6--6--6--6~--|
E|---------------|

Verse:
e|---------------------------------------------------------------------|
B|---------------------------------------------------------------------|
G|-------------------1010101010101010------------------8-8-8-8-8-8-8-8-|
D|--8-8-8-8-8-8-8-8--1010101010101010-5-5-5-5-5-5-5-5--8-8-8-8-8-8-8-8-|
A|--8-8-8-8-8-8-8-8--8-8-8-8-8-8-8-8--5-5-5-5-5-5-5-5--6-6-6-6-6-6-6-6-|
E|--6-6-6-6-6-6-6-6-------------------3-3-3-3-3-3-3-3------------------|
    . . . . . . . .  . . . . . . . .  . . . . . . . .  . . . . . . . .

Pre-Chorus:
e|--------------------------------------------------|------------------|
B|--------------------------------------------------|------------------|
G|--5--5-5--5--5-5------------------8--8-8--8--8-8--|-1010101010101010-|
D|--5--5-5--5--5-5--5--5-5--5--5-5--8--8-8--8--8-8--|-1010101010101010-|
A|--3--3-3--3--3-3--5--5-5--5--5-5--6--6-6--6--6-6--|-8-8-8-8-8-8-8-8--|
E|------------------3--3-3--3--3-3------------------|------------------|

Chorus: (x2)
e|---------------------------------------------------------------------|
B|---------------------------------------------------------------------|
G|-------------------8-8-8-8-8-8-8-8-----------------------------------|
D|--8-8-8-8-8-8-8-8--8-8-8-8-8-8-8-8--5-5-5-5-5-5-5-5--3-3-3-3-3-3-3-3-|
A|--8-8-8-8-8-8-8-8--6-6-6-6-6-6-6-6--5-5-5-5-5-5-5-5--3-3-3-3-3-3-3-3-|
E|--6-6-6-6-6-6-6-6-------------------3-3-3-3-3-3-3-3--1-1-1-1-1-1-1-1-|

e|---------------|
B|---------------|
G|--8--8--8--8~--|
D|--8--8--8--8~--|
A|--6--6--6--6~--|
E|---------------|

Bridge: (x2)
e|--------------------------------------------------------------------|
B|--------------------------------------------------------------------|
G|-----------------------------------8-8-8-8-8-8-8-8-8-8-8-8-8-8-8-8--|
D|--5-5-5-5-5-5-5-5-5-5-5-5-5-5-5-5--8-8-8-8-8-8-8-8-8-8-8-8-8-8-8-8--|
A|--5-5-5-5-5-5-5-5-5-5-5-5-5-5-5-5--6-6-6-6-6-6-6-6-6-6-6-6-6-6-6-6--|
E|--3-3-3-3-3-3-3-3-3-3-3-3-3-3-3-3-----------------------------------|

e|--------------------------------------------------------------------|
B|--------------------------------------------------------------------|
G|--7-7-7-7-7-7-7-7-7-7-7-7-7-7-7-7--5-5-5-5-5-5-5-5-5-5-5-5-5-5-5-5--|
D|--7-7-7-7-7-7-7-7-7-7-7-7-7-7-7-7--5-5-5-5-5-5-5-5-5-5-5-5-5-5-5-5--|
A|--5-5-5-5-5-5-5-5-5-5-5-5-5-5-5-5--3-3-3-3-3-3-3-3-3-3-3-3-3-3-3-3--|
E|--------------------------------------------------------------------|

Solo Rhythm: (x4)
e|------------------------------------|
B|------------------------------------|
G|------------------------------------|
D|--8-8-8-8-8-8-8-8--6-6-6-6-6-6-6-6--|
A|--8-8-8-8-8-8-8-8--6-6-6-6-6-6-6-6--|
E|--6-6-6-6-6-6-6-6--4-4-4-4-4-4-4-4--|

Interlude: Play On 2nd Time
e|----------------------------------------------------------|
B|----------------------------------------------------------|
G|---------------8-8-8-8-8-8--------------------------------|
D|--8-8-8-8-8-8--8-8-8-8-8-8--5-5-5-5-5-5--3-3-3-3-3-3-3-3--|
A|--8-8-8-8-8-8--6-6-6-6-6-6--5-5-5-5-5-5--3-3-3-3-3-3-3-3--|
E|--6-6-6-6-6-6---------------3-3-3-3-3-3--1-1-1-1-1-1-1-1--|
    . . . . . .  . . . . . .  . . . . . .  . . . . .

Chorus: (x2)
e|---------------------------------------------------------------------|
B|---------------------------------------------------------------------|
G|-------------------8-8-8-8-8-8-8-8-----------------------------------|
D|--8-8-8-8-8-8-8-8--8-8-8-8-8-8-8-8--5-5-5-5-5-5-5-5--3-3-3-3-3-3-3-3-|
A|--8-8-8-8-8-8-8-8--6-6-6-6-6-6-6-6--5-5-5-5-5-5-5-5--3-3-3-3-3-3-3-3-|
E|--6-6-6-6-6-6-6-6-------------------3-3-3-3-3-3-3-3--1-1-1-1-1-1-1-1-|

e|-----------------------------------------------------------------|
B|-----------------------------------------------------------------|
G|--8-8-8-8-8-8-8--1010101010101010--12-12-12-12-12-12-12-12--13~--|
D|--8-8-8-8-8-8-8--1010101010101010--12-12-12-12-12-12-12-12--13~--|
A|--6-6-6-6-6-6-6--8-8-8-8-8-8-8-8---10-10-10-10-10-10-10-10--11~--|
E|-----------------------------------------------------------------|

Outro:
e|--------------------------------------|
B|--------------------------------------|
G|--------------------------------------|
D|--\8-8-8-8-8-8-8-8--6--6\5-6\5--3~~~~~|
A|--\8-8-8-8-8-8-8-8--6--6\5-6\5--3~~~~~|
E|--\6-6-6-6-6-6-6-6--4--4\3-4\3--1~~~~~|




Lead Guitar

Intro:
e|-------------------------------|
B|-----------------9-9p8-9p8-----|
G|---------------------------8\--|
D|--8--8----\8--8----------------|
A|--8--8----\8--8----------------|
E|--6--6----\6--6----------------|
[ Tab from: http://www.guitartabs.cc/tabs/a/all_american_rejects/dirty_little_secret_tab_ver_3.html ]
Lead Riff: (x2)
e|--------------------------|------------------|
B|----11---11--9-9p8-9p8----|--11--9p8-9p8-----|
G|-----------------------8--|--------------8\--|
D|--8----8------------------|------------------|
A|--------------------------|------------------|
E|--------------------------|------------------|

Verse: (x2)
e|---------------------------------------------------------------------|
B|---------------------------------------------------------------------|
G|---------------------------------------------------------------------|
D|---------------------------------------------------------------------|
A|-------------------8-8-8-8-8-8-8-8-------------------6-6-6-6-6-6-6-6-|
E|--6-6-6-6-6-6-6-6-------------------3-3-3-3-3-3-3-3------------------|

Pre-Chorus:
e|--------------------------------------------------|------------------|
B|--------------------------------------------------|------------------|
G|--5--5-5--5--5-5------------------8--8-8--8--8-8--|-1010101010101010-|
D|--5--5-5--5--5-5--5--5-5--5--5-5--8--8-8--8--8-8--|-1010101010101010-|
A|--3--3-3--3--3-3--5--5-5--5--5-5--6--6-6--6--6-6--|-8-8-8-8-8-8-8-8--|
E|------------------3--3-3--3--3-3------------------|------------------|

Chorus: (x2)
e|---------------------------------------------------------------------|
B|---------------------------------------------------------------------|
G|-------------------8-8-8-8-8-8-8-8-----------------------------------|
D|--8-8-8-8-8-8-8-8--8-8-8-8-8-8-8-8--5-5-5-5-5-5-5-5--3-3-3-3-3-3-3-3-|
A|--8-8-8-8-8-8-8-8--6-6-6-6-6-6-6-6--5-5-5-5-5-5-5-5--3-3-3-3-3-3-3-3-|
E|--6-6-6-6-6-6-6-6-------------------3-3-3-3-3-3-3-3--1-1-1-1-1-1-1-1-|

e|---------------|
B|---------------|
G|--8--8--8--8~--|
D|--8--8--8--8~--|
A|--6--6--6--6~--|
E|---------------|

Verse: Play with some Effects, Figure out Strumming (x2)
e|----|----|----|---|
B|-11-|-10-|-11-|-8-|
G|----|----|----|---|
D|----|----|----|---|
A|----|----|----|---|
E|----|----|----|---|

Pre-Chorus:
e|--------------------------------------------------|------------------|
B|--------------------------------------------------|------------------|
G|--5--5-5--5--5-5------------------8--8-8--8--8-8--|-1010101010101010-|
D|--5--5-5--5--5-5--5--5-5--5--5-5--8--8-8--8--8-8--|-1010101010101010-|
A|--3--3-3--3--3-3--5--5-5--5--5-5--6--6-6--6--6-6--|-8-8-8-8-8-8-8-8--|
E|------------------3--3-3--3--3-3------------------|------------------|

Chorus: (x2)
e|---------------------------------------------------------------------|
B|---------------------------------------------------------------------|
G|-------------------8-8-8-8-8-8-8-8-----------------------------------|
D|--8-8-8-8-8-8-8-8--8-8-8-8-8-8-8-8--5-5-5-5-5-5-5-5--3-3-3-3-3-3-3-3-|
A|--8-8-8-8-8-8-8-8--6-6-6-6-6-6-6-6--5-5-5-5-5-5-5-5--3-3-3-3-3-3-3-3-|
E|--6-6-6-6-6-6-6-6-------------------3-3-3-3-3-3-3-3--1-1-1-1-1-1-1-1-|

e|---------------|
B|---------------|
G|--8--8--8--8~--|
D|--8--8--8--8~--|
A|--6--6--6--6~--|
E|---------------|

Bridge: (x2)
e|--------------------------------------------------------------------|
B|--------------------------------------------------------------------|
G|-----------------------------------8-8-8-8-8-8-8-8-8-8-8-8-8-8-8-8--|
D|--5-5-5-5-5-5-5-5-5-5-5-5-5-5-5-5--8-8-8-8-8-8-8-8-8-8-8-8-8-8-8-8--|
A|--5-5-5-5-5-5-5-5-5-5-5-5-5-5-5-5--6-6-6-6-6-6-6-6-6-6-6-6-6-6-6-6--|
E|--3-3-3-3-3-3-3-3-3-3-3-3-3-3-3-3-----------------------------------|

e|--------------------------------------------------------------------|
B|--------------------------------------------------------------------|
G|--7-7-7-7-7-7-7-7-7-7-7-7-7-7-7-7--5-5-5-5-5-5-5-5-5-5-5-5-5-5-5-5--|
D|--7-7-7-7-7-7-7-7-7-7-7-7-7-7-7-7--5-5-5-5-5-5-5-5-5-5-5-5-5-5-5-5--|
A|--5-5-5-5-5-5-5-5-5-5-5-5-5-5-5-5--3-3-3-3-3-3-3-3-3-3-3-3-3-3-3-3--|
E|--------------------------------------------------------------------|

Solo:
e|---------------------------------------------------------|
B|----11---11--9-9p8-9p8------11---11--9-9p8-------13(15)--|
G|-----------------------8-------------------10/12---------|
D|--8----8------------------8----8-------------------------|
A|---------------------------------------------------------|
E|---------------------------------------------------------|

e|-----13-----13--11-11p10-11p10--------13-----13--11-11p10-11p10------|
B|--11-----11--------------------11~-11-----11--------------------11\--|
G|---------------------------------------------------------------------|
D|---------------------------------------------------------------------|
A|---------------------------------------------------------------------|
E|---------------------------------------------------------------------|

Interlude: (x2)
e|---------------------------------------------------------------------|
B|---------------------------------------------------------------------|
G|---------------------------------------------------------------------|
D|---------------------------------------------------------------------|
A|-------------------6-6-6-6-6-6-6-6-----------------------------------|
E|--6-6-6-6-6-6-6-6-------------------3-3-3-3-3-3-3-3--1-1-1-1-1-1-1-1-|

Chorus: (x2)
e|---------------------------------------------------------------------|
B|---------------------------------------------------------------------|
G|-------------------8-8-8-8-8-8-8-8-----------------------------------|
D|--8-8-8-8-8-8-8-8--8-8-8-8-8-8-8-8--5-5-5-5-5-5-5-5--3-3-3-3-3-3-3-3-|
A|--8-8-8-8-8-8-8-8--6-6-6-6-6-6-6-6--5-5-5-5-5-5-5-5--3-3-3-3-3-3-3-3-|
E|--6-6-6-6-6-6-6-6-------------------3-3-3-3-3-3-3-3--1-1-1-1-1-1-1-1-|

e|-----------------------------------------------------------------|
B|-----------------------------------------------------------------|
G|--8-8-8-8-8-8-8--1010101010101010--12-12-12-12-12-12-12-12--13~--|
D|--8-8-8-8-8-8-8--1010101010101010--12-12-12-12-12-12-12-12--13~--|
A|--6-6-6-6-6-6-6--8-8-8-8-8-8-8-8---10-10-10-10-10-10-10-10--11~--|
E|-----------------------------------------------------------------|

Outro:
e|------------------------------------------------------|
B|----11---11--9-9p8-9p8------11---11--9-9p8-9p8--------|
G|-----------------------8-----------------------10~~~~~|
D|--8----8------------------8----8----------------------|
A|------------------------------------------------------|
E|------------------------------------------------------|
Comments