All-american Rejects - Dirty Little Secret Chords & Tabs

 

Dirty Little Secret Chords & Tabs

All-american Rejects Chords & Tabs

Version: 1 Type: Tab 0 ratings
1 star 2 stars 3 stars 4 stars 5 stars
comments

Dirty Little Secret Tab

Okay so this is my first tab and I got mad that no one has tabbed this yet. Its a great 
and is STANDARD TUNING.It's %100 correct but it'll give a start to tabber and guitarists 
Enjoy!!

Intro: x5
E|-------------------------|
B|-------------------------|
G|-------------------------|
D|-----8----8--6-6p5h6p5---|
A|-----------------------6-|
E|--6-----6----------------|
The first time the lead slides on the 6 on the A string. and the last time he only 
the pull-off section.

Verse 1:
E|----------------------|
B|----------------------|
G|---------------8------|
D|8----0----5----8x7----|
A|8x7--0x7--5x7--6------|
E|6----5----3-----------|

Interlude:(Tell me all that you've thrown away....)
E|------------------------------|
B|-4----------------------------|
G|-5---------8------------------|
D|-5x6--5----8x6--(Rest)--8-----|
A|-3----5x6--6------------8x6---|
E|------3-----------------6-----|
[ Tab from: http://www.guitartabs.cc/tabs/a/all_american_rejects/dirty_little_secret_tab.html ]
Chorus: x2
E|----------------------------|
B|----------------------------|
G|----8----- --8--------------|
D|-8--8--5--3--8(hold---------|       You figure the struming pattern yourself.
A|-8--6--5--3--6--------------|
E|-6-----3--1-----------------|

Repeat Verse
Repeat Interlude
Repeat Chorus

Bride: x2
E|-------|
B|-------|
G|----8--|
D|-5--8--|
A|-5--6--|
E|-3-----|

Then:
Play Bb a lot until Intro Repeats

Repeat Intro but jump an octave after a couple of times:
E|---13------13--11--11p10h11p10-----|
B|11-----11-----------------------11-|
G|-----------------------------------|
D|-----------------------------------|
A|-----------------------------------|
E|-----------------------------------|

Next: x2
E|-------------|
B|-------------|
G|----8--------|
D|-8--8--5--3--|
A|-8--6--5--3--|
E|-6-----3--1--|

Repeat Chorus

I can't figure the little build up at the end but to make the guitar dieing noise jus 
your E-string out of tune after playing the final chord.. whic is Bb.
Comments