All - Worlds On Heroin Chords & Tabs

 

Worlds On Heroin Chords & Tabs

All Chords & Tabs

Version: 1 Type: Bass Tab 0 ratings
1 star 2 stars 3 stars 4 stars 5 stars
comments

Worlds On Heroin Bass Tab

Song:             wORld'S on heROiN
Band:  ALL
Album: pUNk-O-rAMA 3 & mASS nERdER
tabbed by:jUSTiNsLATeR {punkdork@hotmail.com}


sTart With ShoRt guiTar SoLO  INto THiS...
G:---------------------------------------------------------------
D:---------------------------------------------------------------
A:-----------------5--------OR cLoSE TO tHAT---------------------
E:---------------------------------------------------------------

vERSe
G:---------------------------------------------------------------
D:---------------------------------------------------------------
A:-----------5>----------------------------------------------------
E:-----------------3>-------6>---------------------------------------

pRe-CHoRUS
G:---------------------------------------------------------------
D:-------------------------------------------------------------4-6-7
A:----------8 7-5---dO tHAT 3 TImES BUT on THE LASt Go----4-5-7---
E:----5555---------------------------------------------5-7--------
IT's A SCaLe Or SOmetHING LiKE tHAT

cHORUs
G:---------------------------------------------------------------
D:---------------------------------------------------------------
A:--7777----10-10-10-10---5555---------7777---------5555---------
E:-------------------------------7777--------5555------------------

bRIDgE
G:---------------------------------------------------------------
D:---------------------------------------------------------------
A:-------10-----10------9-----9------5------5-----7-----7---------
E:----8------8------7------7------3-----3------5-----5-----------

EnD Of BrIDgE
G:---------------------------------------------------------------
D:---------------------------------------------------------------
A:---------------------------------------------------------------
E:----8888-------7777--------3333---------5555----8888-----------
[ Tab from: http://www.guitartabs.cc/tabs/a/all/worlds_on_heroin_btab.html ]
YeaH.  The BAss pLayeR frOm ALL is AloT beTTEr thaN i Am sO he ThroWS iN a 
LOT of ExtRa NOtes aND thIngs thAt i coUldN't figURe oUt.  THesE Are THe 
BasiC RifFs anD it SouNDs gooD eIther Way.
VisIt my HOmePage http://www.angelfire.com/nj/kickedintheballs



{{{{{{{{{{{{{{{{{{{{{{{{{{{{{{{{{{{{{{{{{{{
VERSION 2
}}}}}}}}}}}}}}}}}}}}}}}}}}}}}}}}}}}}}}}}}}}



song: World`s on heroin
band: ALL
album: Punk o Rama 3
tabbed by: Carlos Pino 
homepage: http://members.xoom.com/VoodooPino/
 
"The world's on heroin..."
G|-------------------------------------------------------------------|
D|-------------------------------------------------------------------|
A|-5-5-5-5-5-5-5-5---------------------------------------------|
E|-----------------------3--3-3-3-6-6-6-6-----------------------|
 
"From the..."
G|-------------------------------------------------------------------------|
D|------------------------------------------------------------------------|
A|------------8--7--5-------------8--7--5-----------8--7--5----------|
E|-5-5-5-5-----------5-5-5-5--------------5-5-5-----------5-5-5-5-5-5-5-5------|
 
"I wanna put an end..."
G|------------------------------------------------------------------------------------------|
D|------------------------------------------------------------------------------------------|
A|-7-7-7-7-10-10-10-10-5-5-5-5-------------7-7-7-7-------------5-5-5-5--------|
E|-----------------------------------------7-7-7-7-------------5-5-5-5----------------|
 
"If I had my way..."
G|--------------------------------------------------------------------|
D|-------------------------------------(x2)---------------------------|
A|---10---10---9---9---5---5---7---7----------------------------------|
E|-8----8----7---7---3---3---5---5------------------------------------|
 
"From the looks of things..."
G|--------------------------------------------------------------------|
D|--------------------------------------------------------------------|
A|--------------------------------------------------------------------|
E|-8--8--8--8--7-7-7-7-3-3-3-3-5-5-5-5-8--8--8--8---------------------|





Comments