Alkaline Trio - Your Neck Chords & Tabs

 

Your Neck Chords & Tabs

Alkaline Trio Chords & Tabs

Version: 1 Type: Tab 0 ratings
1 star 2 stars 3 stars 4 stars 5 stars
comments

Your Neck Tab

ALKALINE TRIO
YOUR NECK
CRIMSON

This song is from their new album due out may 24th

WORK OUT STRUMMING PATTERNS BY LISTENING TO THE SONG, ITS NOT HARD

INTRO/CHORUS
e|---------------------------------------|
B|---------------------------------------|
G|---------------------------------------|
D|--5--5--2--5--5--7--5--5---------------|
A|--5--5--2--2--3--5--3--2---------------|
E|--3--2--0------------------------------|


PRE VERSE
e|---------------------------------------|
B|---------------------------------------|
G|--9--7--5--4---------------------------|
D|--x--x--x--x---------------------------| x 3
A|--7--5--3--2----------------------------|
E|---------------------------------------|

END OF PRE VERSE
e|---------------------------------------|
B|---------------------------------------|
G|--5--7--8------------------------------|
D|--x--x--8------------------------------| x 1
A|--3--5--6------------------------------|
E|---------------------------------------|

[ Tab from: http://www.guitartabs.cc/tabs/a/alkaline_trio/your_neck_tab.html ]
VERSE
e|---------------------------------------|
B|---------------------------------------|
G|-----5--7--5---------------------------|
D|--2--5--7--5---------------------------| x 3
A|--2--3--5--3---------------------------|
E|--0------------------------------------|

END OF VERSE
e|---------------------------------------|
B|---------------------------------------|
G|--5--7--8------------------------------|
D|--5--7--8------------------------------| x 1
A|--3--5--6------------------------------|
E|---------------------------------------|

PRE VERSE X 2

VERSE x 3

END OF VERSE X 1

CHORUS X 1

BRIDGE, let notes ring first time then strum
e|---------------------------------------|
B|---------------------------------------|
G|-----5--2--7--5------------------------|
D|--2--5--2--7--5------------------------|
A|--2--3--0--5--3------------------------|
E|--0------------------------------------|

CHORUS x2

END NOTE
e|----|
B|----|
G|----|
D|--2-|
A|--2-|
E|--0-|


For corrections email me at e_mericana@hotmail.com
Comments