Alkaline Trio - Weak Week Chords & Tabs

 

Weak Week Chords & Tabs

Alkaline Trio Chords & Tabs

Version: 1 Type: Tab 0 ratings
1 star 2 stars 3 stars 4 stars 5 stars
comments

Weak Week Tab

okay alkaline trio, first ever song i think , on thier TAPE hehe back in the 
. leealk3@msn.com

Intro
e-------------------------------------------|
B-------------------------------------------|
G-------------------------------------------|
D-----5-----2---4---5---7-------------------| x1
A-----5-----2---4---5---7-------------------|
E-----3-----0---2---3---5-------------------|
kina hard to hear seein its sooo cheap..but its right
[ Tab from: http://www.guitartabs.cc/tabs/a/alkaline_trio/weak_week_tab.html ]
verse
------------------------------------------|
------------------------------------------|
------------------------------------------|
-----7-----9---5---2---4---5---7----------| x2
-----7-----9---5---2---4---5---7----------|
-----5-----7---3---0---2---3---5----------|


Pre chorus
---------------------|
---------------------|
---------------------|
----2---4----5-------| x4
----2---4----5-------|
----0---2----3-------|

Chorus
-------------------|
-------------------|
---9---------------|
---9---5---7-------| x2
---7---5---7-------|
-------3---5-------|

Interlude - for a while -
----------------|
----------------|
----------------|
-------7--------| x2
-------7--------|
-------5--------|

ABOUT TIME THIS WEBSITE HAD THIS SONG

LOVE THE TRIO TO DEATH

song order:
	intro
	verse
	pre-chorus
	chorus
	interlude
	chorus
	pre-chorus
	chorus
	interlude
Comments