Alkaline Trio - We Can Never Break Up Chords & Tabs

 

We Can Never Break Up Chords & Tabs

Alkaline Trio Chords & Tabs

Version: 1 Type: Tab 0 ratings
1 star 2 stars 3 stars 4 stars 5 stars
comments

We Can Never Break Up Tab

ALKALINE TRIO
WE CAN NEVER BREAK UP
TIME TO WASTE SINGLE

INTRO
    (i) x3       (ii) x 1
e|---------|-----------------------------| 
B|---------|-----------------------------| 
G|-7-0---0-|--7-0-----0------------------| 
D|-----4---|------4-2--------------------| 
A|---------|-----------------------------| 
E|---------|-----------------------------| 

VERSE
e|---------------------------------------| 
B|---------------------------------------| 
G|-5-----5--------5----------------------| 
D|-5--2--5--2--5--5--5-------------------| x1
A|-3--2--3--2--5--3--5-------------------| 
E|----0-----0--3-----3-------------------| 


PRE CHORUS (i) + (ii) 

    (i)                      (ii)
e|----------------------|----------------|
B|----------------------|----------------|
G|-22222222225555555555-|--------5555555-|
D|-22222222225555555555-|222222225555555-|
A|-00000000003333333333-|222222223333333-|
E|----------------------|00000000--------|

VERSE x 1

PRE CHORUS part (i) + (ii) + (i)

CHORUS
[ Tab from: http://www.guitartabs.cc/tabs/a/alkaline_trio/we_can_never_break_up_tab.html ]
your like a song in my...
e|-------------------------------------------------|
B|-------------------------------------------------|
G|-----------444444444445555555555-----------------|
D|-55555555554444444444455555555555555555555555----|x 1
A|-55555555552222222222233333333335555555555555----|
E|-3333333333---------------------3333333333333----|

and if i never...
e|-------------------------------------------------|
B|-------------------------------------------------|
G|-2222222222222222555555555555577777777777755555--|
D|-2222222222222222555555555555577777777777755555--|x 1
A|-0000000000000000333333333333355555555555533333--|
E|-------------------------------------------------|

my love...
e|-------------------------------------------------|
B|-------------------------------------------------|
G|------------------5555555555555555---------------|
D|-555555555555555555555555555555555---------------|x 2
A|-555555555555555553333333333333333---------------|
E|-33333333333333333-------------------------------|


e|-------------------------------------------------|
B|-------------------------------------------------|
G|----------------------------------7777777777777--|
D|-5555555555555555522222222222222227777777777777--|x 1
A|-5555555555555555522222222222222225555555555555--|
E|-333333333333333330000000000000000---------------|

INTRO 

VERSE

PRE CHORUS

CHORUS

INTRO + "my love" part of chorus

for corrections email me at e_mericana@hotmail.com
Comments