Alkaline Trio - Wash Away Chords & Tabs

 

Wash Away Chords & Tabs

Alkaline Trio Chords & Tabs

Version: 1 Type: Tab 0 ratings
1 star 2 stars 3 stars 4 stars 5 stars
comments

Wash Away Tab

   
-------------------------------------------------------------------------------
			     Wash Away - Alkaline Trio
-------------------------------------------------------------------------------
Band: Alkaline Trio
Album: Tony Hawk's American Wasteland Soundtrack
Song: Wash Away (T.S.O.L. cover)
Tabbed by: dluk
Email: dluk07@gmail.com

First tab here.  Sounds right to me!
Alkaline Trio = best band ever
Comments? email me

Tuning: Standard

Intro:
e|---------------------------------------------------------|
B|---------------------------------------------------------|
G|1212121212121212-------------------------1010101010101010|
D|1212121212121212-1212-1111-1212-1111-x7--1010101010101010|
A|-----------------------------------------8-8-8-8-8-8-8-8-|
E|---------------------------------------------------------|

Verse:
e|-----------------|
B|-----------------|
G|55555555---------|
D|55555555-33333333|
A|33333333-33333333|
E|---------11111111|x4

Chorus:
e|-----------------------------------------|
B|-----------------------------------------|
G|--------------------------------5555-7777|
D|77777777-88888888-77777777-8888-5555-7777|
A|77777777-88888888-77777777-8888-3333-5555|
E|55555555-66666666-55555555-6666----------|x2

Verse:
e|-----------------|
B|-----------------|
G|55555555---------|
D|55555555-33333333|
A|33333333-33333333|
E|---------11111111|x4

Chorus:
e|-----------------------------------------|
B|-----------------------------------------|
G|--------------------------------5555-7777|
D|77777777-88888888-77777777-8888-5555-7777|
A|77777777-88888888-77777777-8888-3333-5555|
E|55555555-66666666-55555555-6666----------|x2

Pre solo:
e|-----------------|
B|-----------------|
G|---5---5---5---5-|
D|-2-5-2-5-2-5-2-5-|
A|-2-3-2-3-2-3-2-3-|
E|-0---0---0---0---|Play these same chords over solo
[ Tab from: http://www.guitartabs.cc/tabs/a/alkaline_trio/wash_away_tab.html ]
Solo:
e|---------------------------------|
B|-7h8-8-8-8-8-8-8-8-7h8-8-8-8-8-8-|
G|---------------------------------|
D|---------------------------------|
A|---------------------------------|
E|---------------------------------|

e|-8-8-8-8p7-7-7-7p5-5-5-5-5--------------------------------|
B|---------------------------8-8-7--7-7-7-7h8-8-8-8-8-8-8-8-|
G|----------------------------------------------------------|
D|----------------------------------------------------------|
A|----------------------------------------------------------|
E|----------------------------------------------------------|

e|---------------------------------|
B|-7h8-8-8-8-8-8-8-8-7h8-8-8-8-8-8-|
G|---------------------------------|
D|---------------------------------|
A|---------------------------------|
E|---------------------------------|

e|8-8-8-8p7-7-7-7p5-5-5-5--------------------------------------------------------|
B|------------------------8-8-7--7-7-7-7/8-8-8-8/10-10-10-10/12-12-12-13-12-10-10|
G|-------------------------------------------------------------------------------|
D|-------------------------------------------------------------------------------|
A|-------------------------------------------------------------------------------|
E|-------------------------------------------------------------------------------|

Chorus:
e|-----------------------------------------|
B|-----------------------------------------|
G|--------------------------------5555-7777|
D|77777777-88888888-77777777-8888-5555-7777|
A|77777777-88888888-77777777-8888-3333-5555|
E|55555555-66666666-55555555-6666----------|x2

Outro
e|------------------------|
B|------------------------|
G|-55555555---------------|
D|-55555555-33333333----7-|
A|-33333333-33333333----7-|
E|----------11111111-x4-5-|

| /  slide up
| \  slide down
| h  hammer-on
| p  pull-off
| ~  vibrato
| +  harmonic
| x  Mute note
Comments