Alkaline Trio - Trucks And Trains Chords & Tabs

 

Trucks And Trains Chords & Tabs

Alkaline Trio Chords & Tabs

Version: 1 Type: Tab 0 ratings
1 star 2 stars 3 stars 4 stars 5 stars
comments

Trucks And Trains Tab

   
Author/Artist: Alkaline Trio
Title: Trucks & Trains
Album: From Here To Infirmary
Transcribed by: Jim Taone
Email: j_bro124@hotmail.com

Yet some more new stuff... I think this song is great if 
you're a songwriter you can really appreciate the lyrics
with so much color symbolism... blah blah blah... 
jim

p.s. rhythm's might be a lil harder than other trio songs
I suggest playing along w/ the c.d.


Intro
-----------------------------------------------------|
-----------------------------------------------------|
---16-16-18-18-19-19-21-21-19-19-18-18-19-19-18-18---|
---x--x--x--x--x--x--x--x--x--x--x--x--x--x--x--x----|
---14-14-16-16-17-17-19-19-17-17-16-16-17-17-16-16---|
-----------------------------------------------------|
                                                                           
---------------------------------------------|
---------------------------------------------|
--11-11-11-11-11-11-12-12-12-12-11-11-11-----|
--x--x--x--x--x--x--x--x--x--x--x--x--x------|
--9--9--9--9--9--9--10-10-10-10-9--9--9------|
---------------------------------------------|
                        
                                                      
VERSE HAS NO GUITAR PARTS


Pre-chorus
-------------------------------|
-------------------------------|
-------------------------------|
-------------------------------|
--5-5-5-5-5-5---7-7-7-7-7------|
--3-3-3-3-3-3---5-5-5-5-5------|
  p.m.-------   p.m.-----                                                     

[ Tab from: http://www.guitartabs.cc/tabs/a/alkaline_trio/trucks_and_trains_tab.html ]
Chorus
--------------------------------------------|
--------------------------------------------|
--7-7-7-7-7-7-7-----------------------------| 3x
--7-7-7-7-7-7-7---7-7-7-7---5-5-5-5-5-5-----|
--5-5-5-5-5-5-5---7-7-7-7---5-5-5-5-5-5-----|
------------------5-5-5-5---3-3-3-3-3-3-----|
                                                                              
On 3rd time end chorus riff with:
----------------------------------------------|
----------------------------------------------|
----------------------------------------------|
--7-7-7-7-7-7-7-7-7-7----5-5-5-5-5---7-7-7-7--|
--7-7-7-7-7-7-7-7-7-7----5-5-5-5-5---7-7-7-7--|
--5-5-5-5-5-5-5-5-5-5----3-3-3-3-3---5-5-5-5--|
     
                                                                                                     
Bridge:
-----------------------------------------------------|
-----------------------------------------------------|
--16-16-18-18-19-19-21-21-19-19-18-18-19-19-18-18----| 4x
--x--x--x--x--x--x--x--x--x--x--x--x--x--x--x--x-----|
--14-14-16-16-17-17-19-19-17-17-16-16-17-17-16-16----|
-----------------------------------------------------|
                                                                              

Interlude                                   D
---------------------------------------------------|
---------------------------------------------------|
--------------------------------------------7-7\---| 4x
--9-9-9-9-9--7-7-7-7-7--5-5-5-5-5--4-4-4----7-7\---|
--9-9-9-9-9--7-7-7-7-7--5-5-5-5-5--4-4-4----5-5\---|
--7-7-7-7-7--5-5-5-5-5--3-3-3-3-3--2-2-2-----------|
  p.m.----------------------------------           


Songflow:
Intro
Pre-chorus
Chorus
Intro
Pre-chorus
Chorus
Bridge 
Interlude
Chorus
End on D

Questions, comments, corrections... e-mail me at j_bro124@hotmail.com
Comments