Alkaline Trio - Time To Waste Chords & Tabs

 

Time To Waste Chords & Tabs

Alkaline Trio Chords & Tabs

Version: 5 Type: Tab 0 ratings
1 star 2 stars 3 stars 4 stars 5 stars
comments

Time To Waste Tab

==============================
TIME TO WASTE——Alkaline Trio
==============================
Tabbed by: ccs127
Email: ccs127@comcast.net
Tuning: Standard

I was messing around with my original tab for the song and realized that everything was
off by a fret.  That, and the interlude and outro were a bit off.  I fixed both parts
and changed the tab to the way Trio actually plays it live (everything for the intro and
bridge, save two chords, is played on the third through fifth strings).  So here's an
updated version, perfect to my ears.  Great song, enjoy.


=================
INTRO (0:30~0:51)
=================
e|-------|-------------------------------------------------------------------|----|
B|-------|-------------------------------------------------------------------|----|
G|-------|---666614141414---1313131311111111---777714141414---131313137777---| x2 |
D|---4---|---xxxxxxxxxxxx---xxxxxxxxxxxxxxxx---xxxxxxxxxxxx---xxxxxxxxxxxx---|----|
A|---4---|---444412121212---11111111 9 9 9 9---555512121212---111111115555---|----|
E|---2---|-------------------------------------------------------------------|----|


=================
VERSE (0:52~1:21)
=================
e|---------------------------------------------------------------|
B|---------------------------------------------------------------|
G|---------------------------------------------------7---9---7---|
D|---4---2---4---2---4---6---7---4---2---4---6---7---7---9---7---|
A|---4---2---4---2---4---6---7---4---2---4---6---7---5---7---5---|
E|---2---0---2---0---2---4---5---2---0---2---4---5---------------|

==================
CHORUS (1:22~1:52)
==================
e|-------------------------------|----|-------------------------------|
B|-------------------------------|----|-------------------------------|
G|----------------------7--------| x3 |----------------------7---9----|
D|---7---------4--------7-(x8)---|----|---7---------4--------7---9----|
A|---7-(x16)---4-(x8)---5--------|----|---7-(x16)---4-(x8)---5---7----|
E|---5---------2-----------------|----|---5---------2-----------------|

=====================
INTERLUDE (1:53~2:00)
=====================
e|------------------------------------------|
B|------------------------------------------|
G|------------9--------11-------------------|
D|---4--------x-(x8)---x-(x8)---4---6---2---|
A|---4-(x8)---7--------9--------4---6---2---|
E|---2--------------------------2---4---0---|
[ Tab from: http://www.guitartabs.cc/tabs/a/alkaline_trio/time_to_waste_tab_ver_5.html ]
=================
VERSE (2:01~2:30)
=================
e|---------------------------------------------------------------|
B|---------------------------------------------------------------|
G|---------------------------------------------------7---9---7---|
D|---4---2---4---2---4---6---7---4---2---4---6---7---7---9---7---|
A|---4---2---4---2---4---6---7---4---2---4---6---7---5---7---5---|
E|---2---0---2---0---2---4---5---2---0---2---4---5---------------|


==================
CHORUS (2:31~3:00)
==================
e|-------------------------------|----|------------------------------|
B|-------------------------------|----|------------------------------|
G|----------------------7--------| x3 |---------------------7---9----|
D|---7---------4--------7-(x8)---|----|---7--------4--------7---9----|
A|---7-(x16)---4-(x8)---5--------|----|---7-(x16)--4-(x8)---5---7----|
E|---5---------2-----------------|----|---5--------2-----------------|

==================
BRIDGE (3:01~3:31)
==================
e|---------------------------------------------------------------------------------------------|
B|---------------------------------------------------------------------------------------------|
G|-------6666---666614141414---1313131311111111---777714141414---131313137777---888814141414---|
D|---4---xxxx---xxxxxxxxxxxx---xxxxxxxxxxxxxxxx---xxxxxxxxxxxx---xxxxxxxxxxxx---xxxxxxxxxxxx---|
A|---4---4444---444412121212---11111111 9 9 9 9---555512121212---111111115555---666612121212---|
E|---2-----------------------------------------------------------------------------------------|

e|---------------------------------------------|
B|---------------------------------------------|
G|---1313131311111111---777714141414---9---7---|
D|---xxxxxxxxxxxxxxxx---xxxxxxxxxxxx---9---7---|
A|---11111111 9 9 9 9---555512121212---7---5---|
E|---------------------------------------------|

==================
CHORUS (3:32~4:01)
==================
e|-------------------------------|----|-------------------------------|
B|-------------------------------|----|-------------------------------|
G|----------------------7--------| x3 |----------------------7---9----|
D|---7---------4--------7-(x8)---|----|---7---------4--------7---9----|
A|---7-(x16)---4-(x8)---5--------|----|---7-(x16)---4-(x8)---5---7----|
E|---5---------2-----------------|----|---5---------2-----------------|

=================
OUTRO (4:02~4:11)
=================
e|---------------------------------------|
B|---------------------------------------|
G|---------------------9--------11-------|
D|---4--------4--------x-(x8)---x-(x8)---|
A|---4-(x8)---4-(x8)---7--------9--------|
E|---2--------2--------------------------|
Comments