Alkaline Trio - Time To Waste Chords & Tabs

 

Time To Waste Chords & Tabs

Alkaline Trio Chords & Tabs

Version: 4 Type: Tab 0 ratings
1 star 2 stars 3 stars 4 stars 5 stars
comments

Time To Waste Tab

   
----------------------------------------------------------------------------
			     TIME TO WASTE - Alkaline Trio
----------------------------------------------------------------------------
Tabbed by: GirlsPLAYitBetR
Email: A_Freak_Inside@yahoo.com

Tuning: Standard

   Intro : 
e|----------|--------------------------------------------------------------|
B|----------|--------------------------------------------------------------|
G|----------|---------------14-14-14-14--13-13-13--11-11-11-11-------------|
D|--4-------|-----4-4-4-4----x--x--x--x---x--x--x---x--x--x--x-------------|
A|--4-(Hold)|-----4-4-4-4---12-12-12-12--11-11-11---9--9--9--9-------------|
E|--2-------|-----2-2-2-2--------------------------------------------------|

e|-------------------------------------------------------------------------|
B|-------------------------------------------------------------------------|
G|--7-7-7-7---14-14-14-14--13-13-13--7-7-7-7-------------------------------|
D|--7-7-7-7----x--x--x--x---x--x--x--x-x-x-x---------(Repeat)--------------|
A|--5-5-5-5---12-12-12-12--11-11-11--5-5-5-5-------------------------------|
E|-------------------------------------------------------------------------|

   Verse:
e|-------------------------------------------------------------------------|
B|-------------------------------------------------------------------------|
G|-------------------------------------------------------------------------|
D|--4--------------------------------------------------2----4----2---------|
A|--4-(Hold)-------------------------------------------2----4----2---------|
E|--2--------------------------------------------------0----2----0---------|
  "There's someone down below blowing you a kiss..."

e|-------------------------------------------------------------------------|
B|-------------------------------------------------------------------------|
G|------------------------------------------7----9----7--------------------|
D|--4----6----7----4----2----4----6----7----7----9----7--------------------|
A|--4----6----7----4----2----4----6----7----5----7----5--------------------|
E|--2----4----5----2----0----2----4----5-----------------------------------|


    Chorus: 
e|--------------------------------------------------------------------------|
B|--------------------------------------------------------------------------|
G|--------------------------------------------------7-7-7-7-7-7-7-7---------|
D|7-7-7-7-7-7-7-7-7-7-7-7-7-7-7-7--4-4-4-4-4-4-4-4--7-7-7-7-7-7-7-7-(Repeat)|
A|7-7-7-7-7-7-7-7-7-7-7-7-7-7-7-7--4-4-4-4-4-4-4-4--5-5-5-5-5-5-5-5---------|
E|5-5-5-5-5-5-5-5-5-5-5-5-5-5-5-5--2-2-2-2-2-2-2-2--------------------------|
               "You had time to waste..."

e|-------------------------------------------------------------------------|
B|-------------------------------------------------------------------------|
G|-----------------------------------------------------------7-----7-------|
D|-7-7-7-7-7-7-7-7-7-7-7-7-7-7-7-7--4-4-4-4-4-4-4-4----------7-----7-------|
A|-7-7-7-7-7-7-7-7-7-7-7-7-7-7-7-7--4-4-4-4-4-4-4-4----------4-----5-------|
E|-5-5-5-5-5-5-5-5-5-5-5-5-5-5-5-5--2-2-2-2-2-2-2-2------------------------|
             "You've got guts to spill..."
[ Tab from: http://www.guitartabs.cc/tabs/a/alkaline_trio/time_to_waste_tab_ver_4.html ]
  Chorus Outro:
e|-------------------------------------------------------------------------|
B|-------------------------------------------------------------------------|
G|-------------------9-9-9-9-9-9-9-9---11-11-11-11-11-11-11-11-------------|
D|-4-4-4-4-4-4-4-4---x-x-x-x-x-x-x-x----x--x--x--x--x--x--x--x-------------|
A|-4-4-4-4-4-4-4-4---7-7-7-7-7-7-7-7----9--9--9--9--9--9--9--9-------------|
E|-2-2-2-2-2-2-2-2---------------------------------------------------------|

  Pre-2nd Verse: 
e|-------------------------------------------------------------------------|
B|-------------------------------------------------------------------------|
G|-------------------------------------------------------------------------|
D|-4----6----2-------------------------------------------------------------|
A|-4----6----2-------------------------------------------------------------|
E|-2----4----0-------------------------------------------------------------|

   Interlude:
e|-------------------------------------------------------------------------|
B|-------------------------------------------------------------------------|
G|-------------------------------------------------------------------------|
D|--4---------------4-4-4-4-4-4--------------------------------------------|
A|--4--(Hold)-------4-4-4-4-4-4--------------------------------------------|
E|--2---------------2-2-2-2-2-2--------------------------------------------|

e|-------------------------------------------------------------------------|
B|-------------------------------------------------------------------------|
G|------------14-14-14-14--13-13-13--11-11-11-11---------------------------|
D|--4-4-4-4----x--x--x--x---x--x--x---x--x--x--x---------------------------|
A|--4-4-4-4---12-12-12-12--11-11-11---9--9--9--9---------------------------|
E|--2-2-2-2----------------------------------------------------------------|

e|-------------------------------------------------------------------------|
B|-------------------------------------------------------------------------|
G|--7-7-7-7---14-14-14-14--13-13-13--7-7-7-7-------------------------------|
D|--7-7-7-7----x--x--x--x---x--x--x--x-x-x-x-------------------------------|
A|--5-5-5-5---12-12-12-12--11-11-11--5-5-5-5-------------------------------|
E|-------------------------------------------------------------------------|

e|-------------------------------------------------------------------------|
B|-------------------------------------------------------------------------|
G|--8-8-8-8---14-14-14-14--13-13-13--11-11-11-11---------------------------|
D|--8-8-8-8----x--x--x--x---x--x--x---x--x--x--x---------------------------|
A|--6-6-6-6---12-12-12-12--11-11-11---9--9--9--9---------------------------|
E|-------------------------------------------------------------------------|

e|-------------------------------------------------------------------------|
B|-------------------------------------------------------------------------|
G|--7-7-7-7---14-14-14-14----9-----7---------------------------------------|
D|--7-7-7-7----x--x--x--x----9-----7---------------------------------------|
A|--5-5-5-5---12-12-12-12----7-----5---------------------------------------|
E|-------------------------------------------------------------------------|

------------------------------
Song Order:                  
Intro
Verse
Chorus
Chorus Outro
Pre-2nd Verse
Verse
Chorus
Chorus Outro
Interlude
Chorus
-------------------------------


| /  slide up
| \  slide down
| h  hammer-on
| p  pull-off
| ~  vibrato
| +  harmonic
| x  Mute note
=============================================================================
Comments