Alkaline Trio - Time To Waste Chords & Tabs

 

Time To Waste Chords & Tabs

Alkaline Trio Chords & Tabs

Version: 3 Type: Tab 0 ratings
1 star 2 stars 3 stars 4 stars 5 stars
comments

Time To Waste Tab

------------------------------
TIME TO WASTE——Alkaline Trio
------------------------------
Tabbed by: ccs127
Email: ccs127@comcast.net

Tuning: Standard

-----------------
INTRO (0:30~0:51)
-----------------------------------------------------------------------------------------------|
e|-------|-------------------------------------------------------------------------------|-----|
B|-------|-------------------------------------------------------------------------------|-----|
G|-------|-----------15151515---1414141412121212-----------15151515---14141414-----------| x2--|
D|---5---|---12121212xxxxxxxx---xxxxxxxxxxxxxxxx---13131313xxxxxxxx---xxxxxxxx13131313---|-----|
A|---5---|---xxxxxxxx13131313---1212121210101010---xxxxxxxx13131313---12121212xxxxxxxx---|-----|
E|---3---|---10101010------------------------------11111111-------------------11111111---|-----|


-----------------
VERSE (0:52~1:21)
-------------------------------------------------------------------|
e|-----------------------------------------------------------------|
B|-----------------------------------------------------------------|
G|---------------------------------------------------8---10--8-----|
D|---5---3---5---3---5---7---8---5---3---5---7---8---8---10--8-----|
A|---5---3---5---3---5---7---8---5---3---5---7---8---6---8---6-----|
E|---3---1---3---1---3---5---6---3---1---3---5---6-----------------|

------------------
CHORUS (1:22~1:52)
---------------------------------------------------------------------|
e|------------------------------|----|-------------------------------|
B|------------------------------|----|-------------------------------|
G|---------------------8--------| x3 |--------------------8--10------|
D|---8---------7-------8-(x8)---|----|---8--------7-------8--10------|
A|---8-(x16)---7-(x8)--6--------|----|---8-(x16)--7-(x8)--6--8-------|
E|---6---------5----------------|----|---6--------5------------------|

---------------------
INTERLUDE (1:53~2:00)
---------------------------------------------|
e|-------------------------------------------|
B|-------------------------------------------|
G|------------8--------10--------------------|
D|---8--------x-(x8)---x-(x8)--5---7---3-----|
A|---8-(x8)---6--------8-------5---7---3-----|
E|---6-------------------------3---5---1-----|
[ Tab from: http://www.guitartabs.cc/tabs/a/alkaline_trio/time_to_waste_tab_ver_3.html ]
-----------------
VERSE (2:01~2:30)
-------------------------------------------------------------------|
e|-----------------------------------------------------------------|
B|-----------------------------------------------------------------|
G|---------------------------------------------------8---10--8-----|
D|---5---3---5---3---5---7---8---5---3---5---7---8---8---10--8-----|
A|---5---3---5---3---5---7---8---5---3---5---7---8---6---8---6-----|
E|---3---1---3---1---3---5---6---3---1---3---5---6-----------------|

------------------
CHORUS (2:31~3:00)
---------------------------------------------------------------------|
e|------------------------------|----|-------------------------------|
B|------------------------------|----|-------------------------------|
G|---------------------8--------| x3 |--------------------8---10-----|
D|---8---------7-------8-(x8)---|----|---8--------7-------8---10-----|
A|---8-(x16)---7-(x8)--6--------|----|---8-(x16)--7-(x8)--6---8------|
E|---6---------5----------------|----|---6--------5------------------|

------------------
BRIDGE (3:01~3:31)
-----------------------------------------------------------------------------------------------|
e|---------------------------------------------------------------------------------------------|
B|---------------------------------------------------------------------------------------------|
G|--------------------------15151515---1414141412121212-----------15151515---14141414----------|
D|---5---12121212---12121212xxxxxxxx---xxxxxxxxxxxxxxxx---13131313xxxxxxxx---xxxxxxxx13131313--|
A|---5---xxxxxxxx---xxxxxxxx13131313---1212121210101010---xxxxxxxx13131313---12121212xxxxxxxx--|
E|---3---10101010---10101010------------------------------11111111-------------------11111111--|

e|--------------------------------------------------------------------|
B|--------------------------------------------------------------------|
G|-----------15151515---1414141412121212-----------15151515---10--8---|
D|---14141414xxxxxxxx---xxxxxxxxxxxxxxxx---13131313xxxxxxxx---10--8---|
A|---xxxxxxxx13131313---1212121210101010---xxxxxxxx13131313---8---6---|
E|---12121212------------------------------11111111-------------------|

------------------
CHORUS (3:32~4:01)
---------------------------------------------------------------------|
e|------------------------------|----|-------------------------------|
B|------------------------------|----|-------------------------------|
G|---------------------8--------| x3 |--------------------8---10-----|
D|---8---------7-------8-(x8)---|----|---8--------7-------8---10-----|
A|---8-(x16)---7-(x8)--6--------|----|---8-(x16)--7-(x8)--6---8------|
E|---6---------5----------------|----|---6--------5------------------|

-----------------
OUTRO (4:02~4:11)
-------------------------------------------|
e|-----------------------------------------|
B|-----------------------------------------|
G|---------------------8--------10---------|
D|---8--------8--------x-(x8)---x-(x8)-----|
A|---8-(x8)---8-(x8)---6--------8----------|
E|---6--------6----------------------------|

Questions, comments, or corrections can be emailed to ccs127@comcast.net.
Comments