Alkaline Trio - Time To Waste Chords & Tabs

 

Time To Waste Chords & Tabs

Alkaline Trio Chords & Tabs

Version: 3 Type: Bass Tab 0 ratings
1 star 2 stars 3 stars 4 stars 5 stars
comments

Time To Waste Bass Tab

Legend:
~ = Let Ring
() = Hit the parenthesised notes very fast

Intro (Piano plays until 0:31, then Bass plays):
G:----------------------------------------------------------------------|
D:----------------------------------------------------------------------|
A:----------------------------------------------------------------------|
E:-2-22-2-2-222222--2-22-2-2-222222--2-22-2-2-222222--2-22-2-2-222222---|

Second part of Intro (Play this 2x) 
G:----------------------------------------------------------------------|
D:----------------------------------------------------------------------|
A:----------------------------------------------------------------------|
E:-2222222222222222-4444-5555-0000000000000000-55555555-0000------------|

Verse (Play this 3x):
G:------------------------------|
D:------------------------------|
A:--------5(x16)--0(x8)--2(x8)--|
E:-2(x32)-----------------------|

G:------------------------------|
D:------------------------------|
A:-----------5(x16)----7~-5~----|
E:-2(x32)-----------------------|
[ Tab from: http://www.guitartabs.cc/tabs/a/alkaline_trio/time_to_waste_btab_ver_3.html ]
Chorus (Play this 3x):
G:-------------------------------------------|
D:-------------------------------------------|
A:--------------------------------55555555---|
E:-5555555555555555--0--22222222-------------|

Then end on this:
G:-------------------------------------------|
D:-------------------------------------------|
A:----------------------------------4~--5~---|
E:-5555555555555555--0--22222222-------------|

Interlude:
G:--------------------------------------------------------|
D:--------------------------------------------------------|
A:--------------------------------------------------------|
E:-22-2-2-222222--22-2-2-222222--22-2-2-222222-2--2~4~0~--|

Verse
Chorus

Bridge (Remember to take breaks between the non-ringing notes):
G:--------R-----------R-----------R-----------R-----------R-----------------|
D:--------E-----------E-----------E-----------E-----------E-----------------|
A:-9~~~~--S-----------S-----------S--55555-5--S--66666-6--S--55555-5--7~-5~-|
E:--------T--22222-2--T--22222-2--T-----------T-----------T-----------------|

Chorus

Outro:
G:-------------------------------------------------------------|
D:-------------------------------------------------------------|
A:-------------------------------99-9-9999999--99-9-9-(999999)-|
E:-22-2-2-222222--22-2-2-222222--------------------------------|
Comments