Alkaline Trio - This Is Getting Over You Chords & Tabs

 

This Is Getting Over You Chords & Tabs

Alkaline Trio Chords & Tabs

Version: 1 Type: Tab 0 ratings
1 star 2 stars 3 stars 4 stars 5 stars
comments

This Is Getting Over You Tab

x=mute
// and \\= slide

|------------------------------|
|------------------------------|
|---7-7-7-7-x-x---7-7-7-7-x-x--|repeat
|------------------------------|
|---5-5-5-5-x-x---5-5-5-5-x-x--|
|------------------------------|
[ Tab from: http://www.guitartabs.cc/tabs/a/alkaline_trio/this_is_getting_over_you_tab.html ]
then
|----------------------------------------------------------------|
|-------------(x4)--------------(x2)-----------------------------|
|--7-7-7-7-x-x------11-11-11-11-x-x-------6-6-6-6//9-9-9-9\\-7-7-|
|----------------------------------------------------------------|
|--5-5-5-5-x-x-------9--9--9--9-x-x-------4-4-4-4//7-7-7-7\\-5-5-|
|----------------------------------------------------------------|
Comments