Alkaline Trio - Take Lots With Alcohol Chords & Tabs

 

Take Lots With Alcohol Chords & Tabs

Alkaline Trio Chords & Tabs

Version: 2 Type: Tab 0 ratings
1 star 2 stars 3 stars 4 stars 5 stars
comments

Take Lots With Alcohol Tab

ALKALINE TRIO
TAKE LOTS WITH ALCOHOL
FROM HERE TO INFIRMARY

Verse 1
e|------------------------------------------------------|
B|------------------------------------------------------|
G|----------------------------------7-7-7-7--9-9-9-9----|
D|-7-7-7-7-7--7-7-7-7-7--7-7-7-7-7--7-7-7-7--9-9-9-9----| x5
A|-7-7-7-7-7--7-7-7-7-7--7-7-7-7-7--5-5-5-5--7-7-7-7----|
E|-5-5-5-5-5--5-5-5-5-5--5-5-5-5-5----------------------|

e|-------------------------------------------------------|
B|-------------------------------------------------------|
G|----------------------------------7-7-7-7--7-7-7-7-----|
D|-7-7-7-7-7--7-7-7-7-7--7-7-7-7-7--7-7-7-7--7-7-7-7-----|
A|-7-7-7-7-7--7-7-7-7-7--7-7-7-7-7--5-5-5-5--5-5-5-5-----|
E|-5-5-5-5-5--5-5-5-5-5--5-5-5-5-5-----------------------|

e|---------------------------------------------------------------------------|
B|---------------------------------------------------------------------------|
G|-----------------------------------9-9-9-9-9-9-9-9-9-9-9--7-7-7-7--9-9-9-9-|
D|-4-4-4-4-4-4-4-4--2-2-2-2-2-2-2-2--x-x-x-x-x-x-x-x-x-x-x--7-7-7-7--9-9-9-9-|
A|-4-4-4-4-4-4-4-4--2-2-2-2-2-2-2-2--7-7-7-7-7-7-7-7-7-7-7--5-5-5-5--7-7-7-7-|
E|-2-2-2-2-2-2-2-2--0-0-0-0-0-0-0-0------------------------------------------|

e|------------------------------------------------------|
B|------------------------------------------------------|
G|----------------------------------7-7-7-7--9-9-9-9----|
D|-7-7-7-7-7--7-7-7-7-7--7-7-7-7-7--7-7-7-7--9-9-9-9----| x3
A|-7-7-7-7-7--7-7-7-7-7--7-7-7-7-7--5-5-5-5--7-7-7-7----|
E|-5-5-5-5-5--5-5-5-5-5--5-5-5-5-5----------------------|

e|------------------------------------------------------|
B|------------------------------------------------------|
G|----------------------------------7-7-7-7--7-7-7-7----|
D|-7-7-7-7-7--7-7-7-7-7--7-7-7-7-7--7-7-7-7--7-7-7-7----|
A|-7-7-7-7-7--7-7-7-7-7--7-7-7-7-7--5-5-5-5--5-5-5-5----|
E|-5-5-5-5-5--5-5-5-5-5--5-5-5-5-5----------------------|

Pre-Chorus
e|-------------------------------------------------------------------|
B|-------------------------------------------------------------------|
G|-----------------------------------9-9-9-9-9-9-9-9-9-9-9--7-7-7-7--|
D|-4-4-4-4-4-4-4-4--2-2-2-2-2-2-2-2--x-x-x-x-x-x-x-x-x-x-x--7-7-7-7--|
A|-4-4-4-4-4-4-4-4--2-2-2-2-2-2-2-2--7-7-7-7-7-7-7-7-7-7-7--5-5-5-5--|
E|-2-2-2-2-2-2-2-2--0-0-0-0-0-0-0-0----------------------------------|

e|-----------------------------------|
B|-----------------------------------|
D|-4-4-4-4-4-4-4-4--2-2-2-2-2-2-2-2--|
A|-4-4-4-4-4-4-4-4--2-2-2-2-2-2-2-2--|
E|-2-2-2-2-2-2-2-2--0-0-0-0-0-0-0-0--|

e|------------------------------------------------------|
B|------------------------------------------------------|
G|----------------------------------7-7-7-7--9-9-9-9----|
D|-7-7-7-7-7--7-7-7-7-7--7-7-7-7-7--7-7-7-7--9-9-9-9----|
A|-7-7-7-7-7--7-7-7-7-7--7-7-7-7-7--5-5-5-5--7-7-7-7----|
E|-5-5-5-5-5--5-5-5-5-5--5-5-5-5-5----------------------|

[ Tab from: http://www.guitartabs.cc/tabs/a/alkaline_trio/take_lots_with_alcohol_tab_ver_2.html ]
Chorus
e|-------------------------------------------|
B|-------------------------------------------|
G|------------9-9-9-9-9--7-7-7-7--9-9-9-9----|
D|-7-7-7-7-7--9-9-9-9-9--7-7-7-7--9-9-9-9----| x 4
A|-7-7-7-7-7--7-7-7-7-7--5-5-5-5--7-7-7-7----|
E|-5-5-5-5-5---------------------------------|


Verse 2
e|------------------------------------------------------|
B|------------------------------------------------------|
G|----------------------------------7-7-7-7--9-9-9-9----|
D|-7-7-7-7-7--7-7-7-7-7--7-7-7-7-7--7-7-7-7--9-9-9-9----| x5
A|-7-7-7-7-7--7-7-7-7-7--7-7-7-7-7--5-5-5-5--7-7-7-7----|
E|-5-5-5-5-5--5-5-5-5-5--5-5-5-5-5----------------------|

e|------------------------------------------------------|
B|------------------------------------------------------|
G|----------------------------------7-7-7-7--7-7-7-7----|
D|-7-7-7-7-7--7-7-7-7-7--7-7-7-7-7--7-7-7-7--7-7-7-7----|
A|-7-7-7-7-7--7-7-7-7-7--7-7-7-7-7--5-5-5-5--5-5-5-5----|
E|-5-5-5-5-5--5-5-5-5-5--5-5-5-5-5----------------------|


Pre-Chorus
e|-------------------------------------------------------------------|
B|-------------------------------------------------------------------|
G|-----------------------------------9-9-9-9-9-9-9-9-9-9-9--7-7-7-7--|
D|-4-4-4-4-4-4-4-4--2-2-2-2-2-2-2-2--x-x-x-x-x-x-x-x-x-x-x--7-7-7-7--|
A|-4-4-4-4-4-4-4-4--2-2-2-2-2-2-2-2--7-7-7-7-7-7-7-7-7-7-7--5-5-5-5--|
E|-2-2-2-2-2-2-2-2--0-0-0-0-0-0-0-0----------------------------------|

e|-----------------------------------|
B|-----------------------------------|
D|-4-4-4-4-4-4-4-4--2-2-2-2-2-2-2-2--|
A|-4-4-4-4-4-4-4-4--2-2-2-2-2-2-2-2--|
E|-2-2-2-2-2-2-2-2--0-0-0-0-0-0-0-0--|

e|------------------------------------------------------|
B|------------------------------------------------------|
G|----------------------------------7-7-7-7--9-9-9-9----|
D|-7-7-7-7-7--7-7-7-7-7--7-7-7-7-7--7-7-7-7--9-9-9-9----|
A|-7-7-7-7-7--7-7-7-7-7--7-7-7-7-7--5-5-5-5--7-7-7-7----|
E|-5-5-5-5-5--5-5-5-5-5--5-5-5-5-5----------------------|


Chorus
e|-------------------------------------------|
B|-------------------------------------------|
G|------------9-9-9-9-9--7-7-7-7--9-9-9-9----|
D|-7-7-7-7-7--9-9-9-9-9--7-7-7-7--9-9-9-9----| x4
A|-7-7-7-7-7--7-7-7-7-7--5-5-5-5--7-7-7-7----|
E|-5-5-5-5-5---------------------------------|


Interlude
e|-----------------------------------------------|
B|-----------------------------------------------|
G|------------9-9-9-9-9--11-11-11-11--9-9-9-9----|
D|-7-7-7-7-7--9-9-9-9-9--11-11-11-11--9-9-9-9----| x2
A|-7-7-7-7-7--7-7-7-7-7--9--9--9--9---7-7-7-7----|
E|-5-5-5-5-5-------------------------------------|

End (palm muted)
e|-----------------------------------------------------------------------|
B|-----------------------------------------------------------------------|
G|-----------------------------------------------------------------------|
D|-7-7-7-7-7-7-7-7--2-2-2-2-2-2-2-2--4-4-4-4-4-4-4-4--2-2-2-2-2-2-2-2----| x4
A|-7-7-7-7-7-7-7-7--2-2-2-2-2-2-2-2--4-4-4-4-4-4-4-4--2-2-2-2-2-2-2-2----|
E|-5-5-5-5-5-5-5-5--0-0-0-0-0-0-0-0--2-2-2-2-2-2-2-2--0-0-0-0-0-0-0-0----|


Lead Bit Over Last 2 End Riffs
e|------------|
B|------------|
G|-9--7-/-6---|
D|-x--x-/-x---|
A|-7--5-/-4---|
E|------------|

For corrections email me at e_mericana@hotmail.com
Comments