Alkaline Trio - Sorry About That Chords & Tabs

 

Sorry About That Chords & Tabs

Alkaline Trio Chords & Tabs

Version: 3 Type: Tab 0 ratings
1 star 2 stars 3 stars 4 stars 5 stars
comments

Sorry About That Tab

-------------------------------------------------------------------------------
			   Alkaline Trio - Sorry About That
-------------------------------------------------------------------------------

Tabbed by:Mikey G
Email:Americana1987@hotmail.com

Tuning:Standard


Intro/Verse
----------------------------------------|
----------------------------------------|
-2-2-2-2---1-1-1h2-1----7-7-7-7-7-7-7---|
-2-2-2-2---2-2-2-2-2----7-7-7-7-7-7-7---|
-0-0-0-0---2-2-2-2-2----5-5-5-5-5-5-5---|
-----------0-0-0-0-0--------------------|



Chorus: "Maybe I just set aside.." 
---------------------------------------------|
---------------------------------------------|
-2-2-2-2---6-6-6-6-------------1-1-1-2-2-2---|
-2-2-2-2---6-6-6-6---4-4-4-4---2-2-2-2-2-2---|
-0-0-0-0---4-4-4-4---4-4-4-4---2-2-2-2-2-2---|
---------------------2-2-2-2---0-0-0-0-0-0---|
[ Tab from: http://www.guitartabs.cc/tabs/a/alkaline_trio/sorry_about_that_tab_ver_3.html ]
------------------------------------------|
------------------------------------------|
-2-2-2-2---7-7-7-7---9-9-9-9--7-7/6/4-4---|
-2-2-2-2---7-7-7-7---x-x-x-x--x-x/x/x-x---|
-0-0-0-0---5-5-5-5---7-7-7-7--5-5/4/2-2---|
------------------------------------------|


Outro:
------------------------------------|
------------------------------------|
-2-2-2-4-4-4-2-2---9-9-9-9-9-9-9----|
-2-2-2-2-2-2-2-2---9-9-9-9-9-9-9----|
-0-0-0-0-0-0-0-0---7-7-7-7-7-7-7----|
------------------------------------|

------------------------------------|
------------------------------------|
-2-2-2-4-4-4-2-2---9-9-9--7-7-7-----|
-2-2-2-2-2-2-2-2---9-9-9--7-7-7-----|
-0-0-0-0-0-0-0-0---7-7-7--5-5-5-----|
------------------------------------|

------------------------------------|
------------------------------------|
-2-2-2-4-4-4-2-2---9-9-9-9-9-9-9----|
-2-2-2-2-2-2-2-2---9-9-9-9-9-9-9----|
-0-0-0-0-0-0-0-0---7-7-7-7-7-7-7----|
------------------------------------|

----------------------------------------------------|
----------------------------------------------------|
-2-2-2-4-4-4-2-2---9-9-9-9---9-9-9-9--7-7--6\4--2---|
-2-2-2-2-2-2-2-2---9-9-9-9---x-x-x-x--x-x--x\x--2---|
-0-0-0-0-0-0-0-0---7-7-7-7---7-7-7-7--5-5--4\2--0---|
----------------------------------------------------|

Intro/Verse 10x
Chorus 2x
Intro/Verse 6x
Chorus 2x
Outro
Comments