Alkaline Trio - Sleepyhead Chords & Tabs

 

Sleepyhead Chords & Tabs

Alkaline Trio Chords & Tabs

Version: 3 Type: Tab 0 ratings
1 star 2 stars 3 stars 4 stars 5 stars
comments

Sleepyhead Tab

   
Alkaline Trio - Sleepyhead
Tabbed By: Daniel Taylor
EMail: danielt88@hotmail.com
From the album "Maybe I'll Catch Fire"
Moderate distortion
Standard Tuning (e G B D A e)

Intro

e|-------------------------------------------|
B|-------------------------------------------|
G|----x--7-7----x--7-7----x--7-7----x--7-7---|
D|----x--7-7----x--7-7----x--7-7----x--7-7---|
A|--x----5-5--x----5-5--x----5-5--x----5-5---|
E|--x---------x---------x---------x----------|

Verses
[ Tab from: http://www.guitartabs.cc/tabs/a/alkaline_trio/sleepyhead_tab_ver_3.html ]
e|--------------------------|
B|--------------------------|
G|--4-4--4-4----5-5--5-5----|
D|--4-4--4-4----5-5--5-5----|
A|--2-2--2-2----3-3--3-3----|
E|--------------------------|

Pm  ***         ***

e|--------------------------|
B|--------------------------|
G|--4-4--4-4----5-5--5-5----|
D|--4-4--4-4----5-5--5-5----|
A|--2-2--2-2----3-3--3-3----|
E|--------------------------|

Pm  ***         ***

e|--------------------------|
B|--------------------------|
G|--4-4--4-4----5-5--5-5----|
D|--4-4--4-4----5-5--5-5----|
A|--2-2--2-2----3-3--3-3----|
E|--------------------------|

Pm  ***         ***

e|---------------|
B|---------------|
G|--7-7-7-7-7-7--|
D|--x-x-x-x-x-x--|
A|--5-5-5-5-5-5--|
E|---------------|

That is all I have worked out so far.
Comments