Alkaline Trio - Radio Chords & Tabs

 

Radio Chords & Tabs

Alkaline Trio Chords & Tabs

Version: 8 Type: Tab 0 ratings
1 star 2 stars 3 stars 4 stars 5 stars
comments

Radio Tab

   
This is rather easy to play, it's a brill song

standard tuning

intro/verse/main riff (clean)

e----------------------------------------------------------------------|
b----------------------------------------------------------------------|
g-----11-----11-----9-----7-----9-11-----11-----11---------9-----9-----|
d-0-0----0-0----0-0---0-0---0-0------9-9----9-9----9-9-7-7---7-7---7-7-|
a----------------------------------------------------------------------|
e----------------------------------------------------------------------|

e-------------------------------------------------------------------|
b-------------------------------------------------------------------|
g-----11-----11-----9-----7-----9-11-----11-----11-------9----------|
d-0-0----0-0----0-0---0-0---0-0------9-9----9-9----9-9-0-7----------| let ring
a--------------------------------------------------------0----------|
e-------------------------------------------------------------------|

(if coloumbus was wrong id drive straight off the edge)

e-------------------|
b-------------------|
g-7-7-7-7-7-7-7-7-9-|
d-5-5-5-5-5-5-5-5-7-|
a-----------------0-|
e-------------------|

Chorus distortion (iv got, a big fat fuckin' bone to pick)
[ Tab from: http://www.guitartabs.cc/tabs/a/alkaline_trio/radio_tab_ver_8.html ]
e-----------------------------------------------------------------|
b-----------------------------------------------------------------|
g-7-7-7-7-7-7-7-7-----------------7-7-7-7-7-7-7-7-----------------|
d-7-7-7-7-7-7-7-7-7-7-7-7-7-7-7-7-7-7-7-7-7-7-7-7-9-9-9-9-7-7-7-7-|
a-5-5-5-5-5-5-5-5-7-7-7-7-7-7-7-7-5-5-5-5-5-5-5-5-9-9-9-9-7-7-7-7-|
e-----------------5-5-5-5-5-5-5-5-----------------7-7-7-7-5-5-5-5-|

(i wish you would take my radio)

e--------------------------------------------------------------|
b--------------------------------------------------------------|
g---------------------------------plugged-in-and-ready-to-fall-|
d-5-5-5-5-5-5-5-5-5-5-5-5-5-5-5-5-7----------------------------|
a-5-5-5-5-5-5-5-5-5-5-5-5-5-5-5-5-7----------------------------|
e-3-3-3-3-3-3-3-3-3-3-3-3-3-3-3-3-5----------------------------|

outro (its the main riff except towards the end you pay this)

e-------------------------------------------------------------------------|
b-------------------------------------------------------------------------|
g-11-11-11-11-11-11-11-11-12-12-12-12-11-11-11-11-12-12-12-12-11-11-11-11-|
d-0--0--0--0--0--0--0--0--0--0--0--0--0--0--0--0--0--0--0--0--0--0--0--0--|
a-------------------------------------------------------------------------|
e-------------------------------------------------------------------------|

e-----------------------------------|
b-----------------------------------|
g-9-9-9-9-9-9-9-9-7-7-7-7-7-7-7-7-9-|
d-7-7-7-7-7-7-7-7-5-5-5-5-5-5-5-5-7-|
a-0-0-0-0-0-0-0-0-----------------0-|
e-----------------------------------|

Order

intro x2
verse
main riff
verse
chorus
main riff
verse
chorus
main riff x2
outro
Comments