Alkaline Trio - Radio Chords & Tabs

 

Radio Chords & Tabs

Alkaline Trio Chords & Tabs

Version: 4 Type: Tab 2 ratings
1 star 2 stars 3 stars 4 stars 5 stars
comments

Radio Tab

   
#----------------------------------PLEASE NOTE---------------------------------#
#This file is the author's own work and represents their interpretation of the #
#song. You may only use this file for private study, scholarship, or research. #
#------------------------------------------------------------------------------#








 

 

Gtr I (E A D G B E) - 'Radio -Alkaline Trio'


  Gtr I
  E E  E E E  E E E E E E E E E E  E E E  E E E  E E E E E E E E E E E
|----------------------------------------------------------------------|
|----------------------------------------------------------------------|
|-----11-----11-----9-----7-----9S11-----11-----11---------9-------9---|
|-0-0----0-0----0-0---0-0---0-0------9-9----9-9----9-0-7-7---7---7---7-|
|--------------------------------------------------------------0-------|
|----------------------------------------------------------------------|


  E E  E E E  E E E   E E E E E E E  E   E E  E E E  E E E
|-------------------|------------------|-------------------|
|-------------------|------------------|-------------------|
|-----11-----11-----|-9-----7-----9S11-|-----11-----11-----|
|-0-0----0-0----0-0-|---0-0---0-0------|-9-9----9-9----9-0-|
|-------------------|------------------|-------------------|
|-------------------|------------------|-------------------|


  W          E E  E E E  E E E   E E E E E E E  E   E E  E E E  E E E
|----------|-------------------|------------------|-------------------|
|----------|-------------------|------------------|-------------------|
|-9--------|-----11-----11-----|-9-----7-----9S11-|-----11-----11-----|
|-7--------|-0-0----0-0----0-0-|---0-0---0-0------|-9-9----9-9----9-0-|
|-0--------|-------------------|------------------|-------------------|
|----------|-------------------|------------------|-------------------|

[ Tab from: http://www.guitartabs.cc/tabs/a/alkaline_trio/radio_tab_ver_4.html ]
  E E E E E E E E   E E  E E E  E E E   E E E E E E E  E   E E  E E E  E E E W
|-----------------|-------------------|------------------|------------------------|
|-----------------|-------------------|------------------|------------------------|
|-----9-------9---|-----11-----11-----|-9-----7-----9S11-|-----11-----11-----9----|
|-7-7---7---7---7-|-0-0----0-0----0-0-|---0-0---0-0------|-9-9----9-9----9-0-7----|
|---------0-------|-------------------|------------------|-------------------0----|
|-----------------|-------------------|------------------|------------------------|


NOTES: After that, play the chords based off of those measures, or
just play the mini's (like for the first part, just play the 0's and 11's together along with the beat)



--------------------------------------------------------------------------------


Duration Legend
---------------
W - whole; H - half; Q - quarter; E - 8th; S - 16th; T - 32nd; X - 64th; a - acciaccatura
+ - note tied to previous; . - note dotted; .. - note double dotted
Uncapitalized letters represent notes that are staccato (1/2 duration)
Irregular groupings are notated above the duration line
Duration letters will always appear directly above the note/fret number it represents the
duration for.  Duration letters with no fret number below them represent rests.  Multi-
bar rests are notated in the form Wxn, where n is the number of bars to rest for.  Low
melody durations appear below the staff

Tablature Legend
----------------
 h   - hammer-on
 p   - pull-off
 b   - bend
 pb  - pre-bend
 r   - bend release (if no number after the r, then release immediately)
 /  - slide into or out of (from/to "nowhere")
 s   - legato slide
 S   - shift slide
 - natural harmonic
[n]  - artificial harmonic
n(n) - tapped harmonic
 ~   - vibrato
 tr  - trill
 T   - tap
 TP  - trem. picking
 PM  - palm muting
n/  - tremolo bar dip; n = amount to dip
 n  - tremolo bar down
 n/  - tremolo bar up
/n  - tremolo bar inverted dip
 =   - hold bend; also acts as connecting device for hammers/pulls
  - volume swell (louder/softer)
 x   - on rhythm slash represents muted slash
 o   - on rhythm slash represents single note slash

Misc Legend
-----------
 |  - bar
||  - double bar
||o - repeat start
o|| - repeat end
*|  - double bar (ending)
 :  - bar (freetime)
 $  - Segno
 &  - Coda
Tempo markers -  = BPM(8/16=s8/s16), where s8 = swing 8ths, s16 = swing 16ths
Comments