Alkaline Trio - Radio Chords & Tabs

 

Radio Chords & Tabs

Alkaline Trio Chords & Tabs

Version: 3 Type: Bass Tab 0 ratings
1 star 2 stars 3 stars 4 stars 5 stars
comments

Radio Bass Tab

   
well yeah this is my second tab...im 100% sure this is right...i play it to the song all
the time and it sounds exactly like it. so yeah here goes nutin..email me with comments 
stuff

~=let ring
\=slide down neck
/=slide up neck

In the ~Intro~ you rest 8 measure and come in at about :20 or :21..srry dont no the 
number.

G|-----------------------------------------------------------------|
D|-----------------------------------------------------7---4-------|
A|-5-5-5-5-5-5-5-5-5-5-5-5-4-4-4-4-2-2-2-2-2-2-2-2-0-0---0---0-0-0-|
E|-----------------------------------------------------------------|

G|-----------------------------------------------------------------|
D|-----------------------------------------------------------------|
A|-5-5-5-5-5-5-5-5-5-5-5-5-4-4-4-4-2-2-2-2-2-2-2-2-0~--------------|
E|-----------------------------------------------------------------|

~Verse~

G|-----------------------------------------------------------------|
D|-----------------------------------------------------------------|
A|-5-5-5-5-5-5-5-5-5-5-5-5-4-4-4-4-2-2-2-2-2-2-2-2-0-0-0-0-0-0-0-0-|    x2
E|-----------------------------------------------------------------|

G|-----------------------------------------------------------------|
D|-----------------------------------------------------7-7-5-5-4-4-|
A|-5-5-5-5-5-5-5-5-5-5-5-5-4-4-4-4-2-2-2-2-2-2-2-2-0-0-------------|
E|-----------------------------------------------------------------|

G|-----------------------------------------------------------------|
D|-----------------------------------------------------------------|
A|-5-5-5-5-5-5-5-5-5-5-5-5-4-4-4-4-2-2-2-2-2-2-2-2-0-0-0-0-0-0-0-0-|
E|-----------------------------------------------------------------|
[ Tab from: http://www.guitartabs.cc/tabs/a/alkaline_trio/radio_btab_ver_3.html ]
G|---------------------------|
D|---------------------------|
A|---------------------------|
E|-3-3-3-3-3-3-3-3-3-3-3-3-5-|

~Chorus~

G|-----------------------------------------------------------------|
D|-----------------------------------------------------------------|
A|-5-5-5-5-5-5-5-5-----------------5-5-5-5-5-5-5-5-----------------|  x2
E|-----------------5-5-5-5-5-5-5-5-----------------7-7-7-7-5-5-5-5-|

G|-----------------|
D|-----------------|
A|-----------------|  x3
E|-3-3-3-3-3-3-3-1-|

G|--------|
D|--------|
A|--------|
E|-5~-----|

~Outro~

G|---------------------------------------------------------------------|
D|-------------------------------------------------------------7-7-5-4-|
A|-5-5-5-5-5-5-5-4-5-5-5-5-4-4-4-2-4-2-2-2-2-2-2-2-0-2-0-0-0-0---------|
E|---------------------------------------------------------------------|

G|---------------------------------------------------------------------|
D|-------------------------------------------------------------7-7-5-4-|
A|-5-5-5-5-5-5-5-4-5-5-5-5-4-4-4-2-4-2-2-2-2-2-2-2-0-2-0-0-0-0---------|  x2
E|---------------------------------------------------------------------|

G|---------------------------------------------------------------------|
D|---------------------------------------------------------------------|
A|-5-5-5-5-5-5-5-4-5-5-5-5-4-4-4-2-4-2-2-2-2-2-2-2-0-2-0-0-0-0-0-0-0-0-|
E|---------------------------------------------------------------------|

G|-----------------------------------------|
D|-----------------------------------------|
A|-----------------------------------------|
E|-333333333333-5~(let ring to end of song)

ummmm yeah....so if there are any erors please email me at
gothicgurl_2004@yahoo.com....thxs and please rate this and leave comments i check them
weekly!
Comments