Alkaline Trio - Private Eye Chords & Tabs

 

Private Eye Chords & Tabs

Alkaline Trio Chords & Tabs

Version: 4 Type: Tab 0 ratings
1 star 2 stars 3 stars 4 stars 5 stars
comments

Private Eye Tab

   
Alkaline Trio - Private Eye
Tabbed by: Jaembi@Juno.com
Email me if ive made a mistake
2-01-02
-------------------------------

Standard Tuning: E A D G B E

Intro: (play 4 times)
e:-------------------------------------------:
B:-------------------------------------------:
G:-12-12-12-11-14-12-------------------------: 
D:-xx-xx-xx-xx-xx-xx-09-09-09-09-10-10-10-10-:
A:-10-10-10-09-12-10-09-09-09-09-10-10-10-10-:
E:-------------------07-07-07-07-08-08-08-08-:

e:-------:
B:-------:
G:-------: (play at the very end of the intro before the verse)
D:-------:
A:-09-09-:
E:-07-07-:

Verse: (palm mute 4 times)
e:-------------------------------------------------------------:
B:-------------------------------------------------------------:
G:-------------------------------------------------------------:
D:-12-12-12-12-14-14-14-14-12-12-12-12-------------------------:
A:-10-10-10-10-12-12-12-12-10-10-10-10-09-09-09-09-10-10-10-10-:
E:-------------------------------------07-07-07-07-08-08-08-08-:

Intro after Verse: (play 2 times)
e:-------------------------------------------:
B:-------------------------------------------:
G:-12-12-12-11-14-12-------------------------:
D:-xx-xx-xx-xx-xx-xx-09-09-09-09-10-10-10-10-:
A:-10-10-10-09-12-10-09-09-09-09-10-10-10-10-:
E:-------------------07-07-07-07-08-08-08-08-:

Verse: (palm mute 2 times)
e:-------------------------------------------------------------:
B:-------------------------------------------------------------:
G:-------------------------------------------------------------:
D:-12-12-12-12-14-14-14-14-12-12-12-12-------------------------:
A:-10-10-10-10-12-12-12-12-10-10-10-10-09-09-09-09-10-10-10-10-:
E:-------------------------------------07-07-07-07-08-08-08-08-:
[ Tab from: http://www.guitartabs.cc/tabs/a/alkaline_trio/private_eye_tab_ver_4.html ]
(Play this the third time on the off beats)
e:----------------------------------------------------:
B:----------------------------------------------------:
G:-12-12--12-12--12-12--12-12-------------------------:
D:-xx-xx--xx-xx--xx-xx--xx-xx-------------------------:
A:-10-10--10-10--10-10--10-10-09-09-09-09-10-10-10-10-:
E:----------------------------07-07-07-07-08-08-08-08-: (palm mute this last part)
(Play the Verse palm muted 1 more time)

Chorus: (play 4 times)
e:-------------------------------------:
B:-------------------------------------:
G:-12-12-12-12-------------------------: 
D:-12-12-12-12-09-09-09-09-12-12-12-12-:
A:-10-10-10-10-09-09-09-09-12-12-12-12-:
E:-------------07-07-07-07-10-10-10-10-:

Intro after Verse: (play 2 times)
e:-------------------------------------------:
B:-------------------------------------------:
G:-12-12-12-11-14-12-------------------------:
D:-xx-xx-xx-xx-xx-xx-09-09-09-09-10-10-10-10-:
A:-10-10-10-09-12-10-09-09-09-09-10-10-10-10-:
E:-------------------07-07-07-07-08-08-08-08-:

(Play after after the end of the intro and hold it)
e:----:
B:----:
G:-12-:
D:-12-:
A:-10-:
E:----:

Verse: (palm mute 2 times)
e:-------------------------------------------------------------:
B:-------------------------------------------------------------:
G:-------------------------------------------------------------:
D:-12-12-12-12-14-14-14-14-12-12-12-12-------------------------:
A:-10-10-10-10-12-12-12-12-10-10-10-10-09-09-09-09-10-10-10-10-:
E:-------------------------------------07-07-07-07-08-08-08-08-:

Chorus: (play 4 times)
e:-------------------------------------:
B:-------------------------------------:
G:-12-12-12-12-------------------------: 
D:-12-12-12-12-09-09-09-09-12-12-12-12-:
A:-10-10-10-10-09-09-09-09-12-12-12-12-:
E:-------------07-07-07-07-10-10-10-10-:

(After this chorus)
e:-------------------------:
B:-------------------------:
G:-12-12-12-12-14-14-14-14-:
D:-12-12-12-12-14-14-14-14-:
A:-10-10-10-10-12-12-12-12-:
E:-------------------------:

(play 4 times)
e:-------------------:
B:-------------------:
G:-12-12-12-11-14-12-:
D:-xx-xx-xx-xx-xx-xx-:
A:-10-10-10-09-12-10-:
E:-------------------:

Chorus: (play 4 times)
e:-------------------------------------:
B:-------------------------------------:
G:-12-12-12-12-------------------------: 
D:-12-12-12-12-09-09-09-09-12-12-12-12-:
A:-10-10-10-10-09-09-09-09-12-12-12-12-:
E:-------------07-07-07-07-10-10-10-10-:

(End, let ring)
e:----:
B:----:
G:-12-:
D:-12-:
A:-10-:
E:----:
Comments