Alkaline Trio - Private Eye Chords & Tabs

 

Private Eye Chords & Tabs

Alkaline Trio Chords & Tabs

Version: 4 Type: Bass Tab 0 ratings
1 star 2 stars 3 stars 4 stars 5 stars
comments

Private Eye Bass Tab

   
Song: Private Eye
Tabbed by : Greg Thomas
E-mail me : The_reaper100@hotmail.com

This song rocks so much and i just love playing it in my band.
After six months of playing it and seeing how Dan Adriano plays it
it has come to my knowledge that most tabs for this song are partially right.
Well take it from me this is right.
Tuning standard. E,A,D,G happy :P

Intro x2

G[--------------------------------]
D[--------------------------------]
A[77777777777777772222222233333333]
E[--------------------------------]

Then...... x1

G[------------00------------------]
D[222220202222--20----------------]
A[----------------2222222233333333]
E[--------------------------------]

Intro 1 more time.

G[------------------------------------]
D[------------------------------------]
A[77777777777777772222222233333333-222]
E[------------------------------------]

Verse x4

G[--------------------------------]
D[--------------------------------]
A[----------------2222222233333333]
E[0000000000000000----------------]

Intro (again) x2
G[--------------------------------]
D[--------------------------------]
A[77777777777777772222222233333333]
E[--------------------------------]

Then Verse (Again) x2
G[--------------------------------]
D[--------------------------------]
A[----------------2222222233333333]
E[0000000000000000----------------]

Then........ x1
G[------------00------------------]
D[222220202222--20----------------]
A[----------------2222222233333333]
E[--------------------------------]

Then verse x1
G[--------------------------------]
D[--------------------------------]
A[----------------2222222233333333]
E[0000000000000000----------------]

Hooray the chorus

G[--------------------------------]
D[--------------------------------]
A[------------------------55555555]
E[3333/15\3333/15\77777777--------]

G[--------------------------------]
D[--------------------------------]
A[------------------------55555555]
E[333333333333333377777777--------]

G[--------------------------------]
D[--------------------------------]
A[------------------------55555555]
E[3333/15\3333/15\77777777--------]

G[--------------------------------]
D[--------------------------------]
A[------------------------55555555]
E[333333333333333377777777--------]

Then back to the intro part x1

G[--------------------------------]
D[--------------------------------]
A[77777777777777772222222233333333]
E[--------------------------------]

then........... x1
[ Tab from: http://www.guitartabs.cc/tabs/a/alkaline_trio/private_eye_btab_ver_4.html ]
G[------------00------------------]
D[222220202222--20----------------]
A[----------------2222222233333333]
E[--------------------------------]

Guitar fades out (your on your own)
Verse again x2

G[--------------------------------]
D[--------------------------------]
A[----------------2222222233333333]
E[0000000000000000----------------]

then.......... x1 

G[------------00------------------]
D[222220202222--20----------------]
A[----------------2222222233333333]
E[--------------------------------]

verse x1

G[--------------------------------]
D[--------------------------------]
A[----------------2222222233333333]
E[0000000000000000----------------]

Chorus 

G[--------------------------------]
D[--------------------------------]
A[------------------------55555555]
E[3333/15\3333/15\77777777--------]

G[--------------------------------]
D[--------------------------------]
A[------------------------55555555]
E[333333333333333377777777--------]

G[--------------------------------]
D[--------------------------------]
A[------------------------55555555]
E[3333/15\3333/15\77777777--------]

G[--------------------------------]
D[--------------------------------]
A[------------------------55555555]
E[333333333333333377777777--------]

Interlude or Bridge

G[--------------------------------]
D[--------------------------------]
A[----------------5555555555555555]
E[7777777777777777----------------]

Intro again x1

G[--------------------------------]
D[--------------------------------]
A[77777777777777772222222233333333]
E[--------------------------------]

then............ x1

G[------------00------------------]
D[222220202222--20----------------]
A[----------------2222222233333333]
E[--------------------------------]

Chorus 
G[--------------------------------]
D[--------------------------------]
A[------------------------55555555]
E[3333/15\3333/15\77777777--------]

G[--------------------------------]
D[--------------------------------]
A[------------------------55555555]
E[333333333333333377777777--------]

G[--------------------------------]
D[--------------------------------]
A[------------------------55555555]
E[3333/15\3333/15\77777777--------]

G[--------------------------------]
D[--------------------------------]
A[------------------------55555555]
E[333333333333333377777777--------]

End on
G[--------------------------------]
D[--------------------------------]
A[--------------------------------]
E[3~~~~~~~------------------------]
Let ring.

Hope ya like it e-mail me if its good!!!!!
Comments