Alkaline Trio - Prevent This Tragedy Chords & Tabs

 

Prevent This Tragedy Chords & Tabs

Alkaline Trio Chords & Tabs

Version: 1 Type: Tab 0 ratings
1 star 2 stars 3 stars 4 stars 5 stars
comments

Prevent This Tragedy Tab

Alkaline Trio
Prevent This Tragedy
Crimson

This song is off their new album due may 24th, another great song by the Alkaline Trio.

intro -

violin tabbed for guitar:

e-13-12----10------------------------|
b-------10----13-10-11-10-8-10-------|
g------------------------------------|
d------------------------------------|
a------------------------------------|
e------------------------------------|

chords played under intro :

e---------------------------------|---------------------------------|
b---------------------------------|---------------------------------|
g-77777777------------------------|-77777777-555555555-333333333----|
d-77777777-77777777-888888888-----|-77777777-555555555-333333333----|
a-55555555-88888888-888888888-----|-55555555-333333333-111111111----|
e----------55555555-666666666-----|---------------------------------|

play all again for verse, but palm-muted

and before chorus go to

e-------------------------------|
b-------------------------------|
g-77777777-3333333-55555555-----|
d-77777777-3333333-55555555-----|
a-55555555-1111111-33333333-----|
e-------------------------------|
  p.m..... ....... ........


chorus :
[ Tab from: http://www.guitartabs.cc/tabs/a/alkaline_trio/prevent_this_tragedy_tab.html ]
"down..." (x4)
e-------------------------------|------------------|
b-------------------------------|------------------|
g---------5555555---------------|-55555555---------|
d-3333333-5555555--------888888-|-55555555---------|
a-3333333-3333333-888888-888888-|-33333333---------|
e-1111111---------555555-666666-|------------------|

back to intro/verse and chorus again.

breakdown/bridge -

e-------------------------|
b-6666-5555-3333----------|
g-7777-7777-7777----------|
d-------------------------|
a-------------------------|
e-------------------------|

play over, then palm mute
then :

e---------------------|
b---------------------|
g-33333333333333333---|
d-33333333333333333---|
a-11111111111111111---|
e---------------------|

pick scrape, then you're back into in the chorus again

then after last time play....

e---------------------------------------------|
b---------------------------------------------|
g-333333333-55555555-7------------------------|
d-333333333-55555555-7------------------------|
a-111111111-33333333-5-(let ring)-------------|
e---------------------------------------------|

for any corrections email me at e_mericana@hotmail.com
Comments