Alkaline Trio - One Hundred Stories Chords & Tabs

 

One Hundred Stories Chords & Tabs

Alkaline Trio Chords & Tabs

Version: 3 Type: Tab 0 ratings
1 star 2 stars 3 stars 4 stars 5 stars
comments

One Hundred Stories Tab

Alkaline Trio
100 STORIES
tabbed by e_mericana@hotmail.com

just figure out strumming patterns by listening to the cd.
Just listen to the parts and fit them into the song, its not hard.

intro
|------------------|---------------------------|
|----10------10----|----10---------------------|
|-9---9---9---9----|-9---9--9------------------| 
|-9---7---9---7--9-|-9---7--9--2--4--6---9-----|
|-7-------7------9-|-7------7--0--0--0---9-----|
|----------------7-|---------------------7-----|


Verse
|----------------------------------------------|
|----------------------------------------------|
|-9--6--9--6--9--6-----------------------------| 
|-9--6--9--6--9--6--2--4--6--9-----------------|
|-7--4--7--4--7--4--0--0--0--9-----------------|
|----------------------------7-----------------|

Pre Chorus
|----------------------------------------------|
|----------------------------------------------|
|-6-----6--9--6--------------------------------| 
|-6--7--6--9--6--7--9--------------------------|
|-4--7--4--7--4--7--9--------------------------|
|----5-----------5--7--------------------------|
[ Tab from: http://www.guitartabs.cc/tabs/a/alkaline_trio/one_hundred_stories_tab_ver_3.html ]
Chorus
|-------------|--------------------------------|
|-------------|--------------------------------|
|-9--4--6-----|-----4-----------9--------------| 
|-9--4--6--7--|--2--4--2--4--6--9--------------|
|-7--2--4--7--|--2--2--0--0--0--7--------------|
|----------5--|--0-----------------------------|

Its not even warm here....
|---------|
|---------|
|-9-------|
|-9--9----|
|-7--9----|
|----7----|

INTRO 
VERSE
PRE CHORUS
CHORUS

Dream a good one tonight...
|---------------------------------------------|
|---------------------------------------------|
|----6----------------------------------------| 
|-2--6--7-------------------------------------|
|-2--4--7-------------------------------------|
|-0-----5-------------------------------------|


Outro
|------------------|--------------------------|
|------------------|--------------------------|
|-9--4-------------|--9--4--------------------| 
|-9--4--2--4--6--7-|--9--4--7-----------------|
|-7--2--0--0--0--0-|--7--2--7-----------------|
|------------------|--------5-----------------|


email me at e_mericana@hotmail.com, joint effort by dean and gawley, mainly dean hehe
Comments