Alkaline Trio - Mr Chainsaw Chords & Tabs

 

Mr Chainsaw Chords & Tabs

Alkaline Trio Chords & Tabs

Version: 4 Type: Tab 0 ratings
1 star 2 stars 3 stars 4 stars 5 stars
comments

Mr Chainsaw Tab

   
This is my favourite song by Alkaline Trio, Enjoy!

Intro Part 1/Verse.

E------------------------------------------------|
B------------------------------------------------|
G--9--9--9--9--9--9--9--9--9---------------------|
D-11-11-11-11-12-12-11-11-11-7-7-7-7-6/7-7-7-7-7-|
A-12-12-12-12-12-12-12-12-12-5-5-5-5-4/5-5-5-5-5-|
E------------------------------------------------|

Intro Part 2/Verse.

E-----------------------------------------|
B-----------------------------------------|
G-----------------------------------------|
D-11-11-11-11-11-11-11-11-9-9-9-9-9-9-9-9-|
A--9--9--9--9--9--9--9--9-7-7-7-7-7-7-7-7-|
E-----------------------------------------|
[ Tab from: http://www.guitartabs.cc/tabs/a/alkaline_trio/mr_chainsaw_tab_ver_4.html ]
                  *Play this 4th time*
E---------------|-------------------------|
B---------------|-------------------------|
G---------------|-------------------------|
D-6/7-7-7-7-7-7-|-11-11-11-11-11-11-11-11-|
A-4/5-5-5-5-5-5-|--9--9--9--9--9--9--9--9-|
E---------------|-------------------------|

Chorus.
E-----------------------|
B-----------------------|
G-------7-7-7-7-9-9-9-9-|
D---2~4~X-X-X-X-X-X-X-X-|
A-7~2~4~5-5-5-5-7-7-7-7-|
E-5~0~2~----------------|

Ending.
E-------------------------------------------------|
B-------------------------------------------------|
G-11-11-11-11-11-11-11-11-11-11-11-11-11-11-11-11-|
D-11-11-11-11-11-11-11-11-11-11-11-11-11-11-11-11-|
A--9--9--9--9--9--9--9--9--9--9--9--9--9--9--9--9-|
E-------------------------------------------------|

E---------------------------------|
B---------------------------------|
G-7-7-7-7-7-7-7-7-9-9-9-9-9-9-9-9-|
D-7-7-7-7-7-7-7-7-9-9-9-9-9-9-9-9-|
A-5-5-5-5-5-5-5-5-7-7-7-7-7-7-7-7-|
E---------------------------------|

//MisterChainsaw//
Comments