Alkaline Trio - Mr Chainsaw Chords & Tabs

 

Mr Chainsaw Chords & Tabs

Alkaline Trio Chords & Tabs

Version: 3 Type: Tab 0 ratings
1 star 2 stars 3 stars 4 stars 5 stars
comments

Mr Chainsaw Tab

Author/Artist: Alkaline Trio
Title: Mr. Chainsaw
Album: From Here To Infirmary
Transcribed by: Jim Taone
Email: j_bro124@hotmail.com

Another song off "Infirmary" and I love playing this song
I think it's a stand-out track on the album... but you 
probably don't care what I think... so... I hope you enjoy
it as much as I do... jim

[ Tab from: http://www.guitartabs.cc/tabs/a/alkaline_trio/mr_chainsaw_tab_ver_3.html ]
Intro/Verse
---------------------------------------------------------|
-6-6-6-6-7-7-7-6-6-----7-7-7-7-7-7-7-7-------------------|
-7-7-7-7-7-7-7-7-7-----7-7-7-7-7-7-7-7-------------------| 2x
-7-7-7-7-7-7-7-7-7-----5-5-5-5-4/5-5-5-------------------|
---------------------------------------------------------|
---------------------------------------------------------|
                                                                              
---------------------------------------------------------|
---------------------------------------------------------|
--11-11-11-11-11--9-9-9-9-9--7-7-7-7-7-7-7-7-7-7-7--9----|
--11-11-11-11-11--9-9-9-9-9--7-7-7-7-7-7-7-7-7-7-7--9----|
--9--9--9--9--9---7-7-7-7-7--4/5-5-5-4/5-5-5-4/5-5--7----|
--9--9--9--9--9------------------------------------------|
                                                                              

Chorus
---------------------------------------------------------|
---------------------------------------------------------|
--2-------------------------7-7-7-7-7--9-9-9-9-9---------| 2x
--2----------2--------4-----7-7-7-7-7--9-9-9-9-9---------|
--0----------2--------4-----5-5-5-5-5--7-7-7-7-7---------|
-------------0--------2----------------------------------|

                                                                              
Outro
---------------------------------------------------------|
---------------------------------------------------------|
--2-2-2-2-2-2--7-7-7-7-7-7--9-9-9-9-9-9------------------| 4x
--2-2-2-2-2-2--7-7-7-7-7-7--9-9-9-9-9-9------------------|
--0-0-0-0-0-0--5-5-5-5-5-5--7-7-7-7-7-7------------------|
---------------------------------------------------------|
                                                                              

Songflow:
Intro 
Verse 2x 
Chorus
Verse 2x
Chorus
Outro


Questions, comments, corrections... e-mail me at j_bro124@hotmail.com
Comments