Alkaline Trio - Mr Chainsaw Chords & Tabs

 

Mr Chainsaw Chords & Tabs

Alkaline Trio Chords & Tabs

Version: 1 Type: Tab 0 ratings
1 star 2 stars 3 stars 4 stars 5 stars
comments

Mr Chainsaw Tab

Song: Mr. Chainsaw
Artist: Alkaline Trio

This is definitely right, so don't worry. Enjoy!!!

Intro/Verse
E|-------------------------------|---------------------------------|
B|2-2-2-2-2-2-2-2-3-3-3-2---2-2-2|---------------------------------|
G|2-2-2-2-2-2-2-2-2-2-2-2---2-2-2|7-7-7-7-7-7-7-7-7-6h7-7-7-7-7-7-7|x2
D|2-2-2-2-2-2-2-2-2-2-2-2---2-2-2|7-7-7-7-7-7-7-7-7-7-7-7-7-7-7-7-7|
A|0-0-0-0-0-0-0-0-0-0-0-0---0-0-0|5-5-5-5-5-5-5-5-5-5-5-5-5-5-5-5-5|
E|-------------------------------|---------------------------------|

E|-----------------------|---------------|
B|-----------------------|---------------|
G|-----------------------|---------------|
D|11-11-11-11-11-11-11-11|9-9-9-9-9-9-9-9|
A|9--9--9--9--9--9--9--9-|7-7-7-7-7-7-7-7|
E|9--9--9--9--9--9--9--9-|7-7-7-7-7-7-7-7|

E|-----------------------------------------|---------------|
B|-----------------------------------------|---------------|
G|6/7-7---7-7-7-6/7-7---7-7-7-6/7-7---7-7-7|---------------|
D|6/7-7---7-7-7-6/7-7---7-7-7-6/7-7---7-7-7|9-9-9-9-9-9-9-9|
A|4/5-5---5-5-5-4/5-5---5-5-5-4/5-5---5-5-5|7-7-7-7-7-7-7-7|
E|-----------------------------------------|7-7-7-7-7-7-7-7|

Chorus
E|-------------------------------------------------------|
B|-------------------------------------------------------|
G|------------------------7-7-7-7-7-7-7-7-9-9-9-9-9-9-9-9|x2
D|7-------2-------4-------7-7-7-7-7-7-7-7-9-9-9-9-9-9-9-9|
A|7-------2-------4-------5-5-5-5-5-5-5-5-7-7-7-7-7-7-7-7|
E|5-------0-------2--------------------------------------|
[ Tab from: http://www.guitartabs.cc/tabs/a/alkaline_trio/mr_chainsaw_tab.html ]
Ending
E|-------------------------------|-------------------------------|
B|-------------------------------|-------------------------------|
G|2-2-2-2-2-2-2-2-2-2-2-2-2-2-2-2|2-2-2-2-2-2-2-2-2-2-2-2-2-2-2-2|
D|2-2-2-2-2-2-2-2-2-2-2-2-2-2-2-2|2-2-2-2-2-2-2-2-2-2-2-2-2-2-2-2|
A|0-0-0-0-0-0-0-0-0-0-0-0-0-0-0-0|0-0-0-0-0-0-0-0-0-0-0-0-0-0-0-0|
E|-------------------------------|-------------------------------|

E|-------------------------------|-------------------------------|
B|-------------------------------|-------------------------------|
G|7-7-7-7-7-7-7-7-7-7-7-7-7-7-7-7|-------------------------------|
D|7-7-7-7-7-7-7-7-7-7-7-7-7-7-7-7|9-9-9-9-9-9-9-9-9-9-9-9-9-9-9-9|
A|5-5-5-5-5-5-5-5-5-5-5-5-5-5-5-5|7-7-7-7-7-7-7-7-7-7-7-7-7-7-7-7|
E|-------------------------------|7-7-7-7-7-7-7-7-7-7-7-7-7-7-7-7|

On the 4th go of the ending, do this:

E|-------------------------------|-------------------------------|
B|-------------------------------|-------------------------------|
G|2-2-2-2-2-2-2-2-2-2-2-2-2-2-2-2|2-2-2-2-2-2-2-2-2-2-2-2-2-2-2-2|
D|2-2-2-2-2-2-2-2-2-2-2-2-2-2-2-2|2-2-2-2-2-2-2-2-2-2-2-2-2-2-2-2|
A|0-0-0-0-0-0-0-0-0-0-0-0-0-0-0-0|0-0-0-0-0-0-0-0-0-0-0-0-0-0-0-0|
E|-------------------------------|-------------------------------|

E|-------------------------------|-------------------------------|-|
B|-------------------------------|-------------------------------|-|
G|7-7-7-7-7-7-7-7-7-7-7-7-7-7-7-7|----------------7-7-7-7-7-7-7-7|2|
D|7-7-7-7-7-7-7-7-7-7-7-7-7-7-7-7|9-9-9-9-9-9-9-9-7-7-7-7-7-7-7-7|2|
A|5-5-5-5-5-5-5-5-5-5-5-5-5-5-5-5|7-7-7-7-7-7-7-7-5-5-5-5-5-5-5-5|0|
E|-------------------------------|7-7-7-7-7-7-7-7----------------|-|

Order:

Intro/Verse x3
Chorus x2
Intro/Verse x3
Chorus x2
Intro/Verse(first line) x1
Ending x4

Thanx 4 reading my tab!!!!!!!!!
Comments