Alkaline Trio - Mercy Me Chords & Tabs

 

Mercy Me Chords & Tabs

Alkaline Trio Chords & Tabs

Version: 3 Type: Tab 0 ratings
1 star 2 stars 3 stars 4 stars 5 stars
comments

Mercy Me Tab

   
[-------ALKALINE TRIO-------]
[---------Mercy Me----------]
[-----tabbed by bLauer------]
[---karibik-blauer@gmx.de---]


* = figure out !
. = Mute
b = bend





INTRO

e|-----------------------------------------------------------------------------| 
B|-----------------------------------------------------------------------------| 
G|--6-6-7-7-9-9-6-6-7-7-9-9-7-7-6-6-6-6-7-7-9-9-6-6-7-7-9-9-7-7-6-6------------| 
D|--7-7-7-7-7-7-7-7-7-7-7-7-7-7-7-7-7-7-7-7-7-7-7-7-7-7-7-7-7-7-7-7------------| 
A|-----------------------------------------------------------------------------| 
E|-----------------------------------------------------------------------------|



VERSE

e|-----------------------------------------------------------------------------| 
B|-----------------------------------------------------------------------------| 
G|--------------------------------------------------7-7--7--7-7--7-------------| 
D|--7-7--7--7-7--7--7-7--7--7-7--7--4-4--4--4-4--4--7-7--7--7-7--7--7-/-9-/-7--| 
A|--7-7--7--7-7--7--7-7--7--7-7--7--4-4--4--4-4--4--5-5--5--5-5--5--x---x---x--| 
E|--5-5--5--5-5--5--5-5--5--5-5--5--2-2--2--2-2--2------------------5-/-7-/-5--|
PM: . .     . .     . .     . .     . .     . .     . .     . .


VERSE ENDING

e|-----------------------------------------------------------------------------| 
B|-----------------------------------------------------------------------------| 
G|-----------------------------------------------------------------------------| 
D|--7-7--7--7-7--7--7-7--7--7-7--7--7-7-7-7-/-9-9-9-9-/-11-11-11-11-/-9-9-9-9--| 
A|--7-7--7--7-7--7--7-7--7--7-7--7--x-x-x-x---x-x-x-x----x--x--x--x---x-x-x-x--| 
E|--5-5--5--5-5--5--5-5--5--5-5--5--5-5-5-5-/-7-7-7-7-/--9--9--9--9-/-7-7-7-7--|
PM: . .     . .     . .     . .   



CHORUS
[ Tab from: http://www.guitartabs.cc/tabs/a/alkaline_trio/mercy_me_tab_ver_3.html ]
e|-----------------------------------------------------------------------------| 
B|-----------------------------------------------------------------------------| 
G|---------7-------------9-----------------------------------------------------| 
D|--4------7------7------9-----------------------------------------------------|  
A|--4------5------7------7-----------------------------------------------------|  
E|--2-------------5------------------------------------------------------------| * = figure out!
    *      *      *      *


POST CHORUS

e|--------------------|-AFTER 3 TIMES------------------------------------------| 
B|--------------------|--------------------------------------------------------| 
G|----------------7---|--------9-9-9-9------7~---------------------------------| 
D|--4------2------7---|----7---9-9-9-9---7--7~---------------------------------|  
A|--4------2------5---|----7---7-7-7-7---7--5~---------------------------------|  
E|--2------0----------|----5-------------5-------------------------------------| * = figure out!
    *      *      *        *             *


ENDING

e|--------------------|-AFTER 3 TIMES-------------------------------------------------| 
B|--------------------|---------------------------------------------------------------| 
G|----------------7---|--------9-9-9-9------9-9-9-9-----------------------------------| 
D|--4------2------7---|----7---9-9-9-9---7--9-9-9-9--7--12-12-12-/-11-11-11-/-9-9--7~-|  
A|--4------2------5---|----7---7-7-7-7---7--7-7-7-7--7---x--x--x----x--x--x---x-x--7~-|  
E|--2------0----------|----5-------------5-----------5--10-10-10-/--9--9--9-/-7-7--5~-| * = figure out!
    *      *      *        *             *           *


INTRO 2x

VERSE 3x

VERSE ENDING 1x

INTRO 2x

VERSE 1x

VERSE ENDING 1x

CHORUS 2x

POST CHORUS 1x

VERSE 3x

VERSE ENDING 1x

CHORUS 2x

POST CHORUS 1x

INTRO 2x

ENDING 1x
Comments