Alkaline Trio - Mercy Me Chords & Tabs

 

Mercy Me Chords & Tabs

Alkaline Trio Chords & Tabs

Version: 1 Type: Tab 0 ratings
1 star 2 stars 3 stars 4 stars 5 stars
comments

Mercy Me Tab

   
ALKALINE TRIO
MERCY ME
CRIMSON

This is off their new album due out May 24th, listen to the song for strumming patterns
and when to palm mute, i think this is right, the into was the hardest part but im quite
sure there is 2 guitars in it.

INTRO guitar 1
E|-------------------------------------|
B|-------------------------------------|
G|-9-6-7-9-7-6-7-9-7-6-7-6-7-----------|
D|-7-7-7-7-7-7-7-7-7-7-7-7-7-----------| x 2
A|-------------------------5-----------|
E|-------------------------------------|

INTRO guitar 2
E|-------------------------------------|
B|-------------------------------------|
G|-9-11-7------------------------------|
D|-7-11-7------------------------------| x 2
A|-0--9-5------------------------------|
E|-------------------------------------|

VERSE
E|-------------------------------------|
B|-------------------------------------|
G|-9-9-6-7-11-7------------------------|
D|-7-7-7-7-11-7------------------------| x 4 
A|----------9-5------------------------|
E|-------------------------------------|

INTRO X 2

VERSE x 2
[ Tab from: http://www.guitartabs.cc/tabs/a/alkaline_trio/mercy_me_tab.html ]
CHORUS
E|-------------------------------------|
B|-------------------------------------|
G|-11-7---9----------------------------|
D|-11-7-7-9----------------------------| X 2
A|--9-5-7-7----------------------------|
E|------5------------------------------|

CHORUS 2
     (i)     (ii)     (iii)
E|--------|------|---------------------|
B|--------|------|---------------------|
G|-11-9-7-|---9--|---7-6-4-------------|
D|-11-9-7-|-7-9--|-7-7-6-4-------------|
A|--9-7-5-|-7-7--|-7-5-4-2-------------|
E|--------|-5----|-5-------------------|

part (i) x 3 then part (ii) x 1 then part (iii) x 1

VERSE x 2

CHORUS 1 x 2
CHORUS 2 x 1

BRIDGE
E|-------------------------------------|
B|-------------------------------------|
G|-9-6-7-9-7-6-7-9-7-6-7-6-------------|
D|-7-7-7-7-7-7-7-7-7-7-7-7-------------| not sure how many times its played
A|-------------------------------------| just work out from the song
E|-------------------------------------|

CHORUS 2

end on
E|---|
B|---|
G|---|
D|-7-| 
A|-7-|
E|-5-|

For corrections email me at e_mericana@hotmail.com
Comments