Alkaline Trio - Keep Em Coming Chords & Tabs

 

Keep Em Coming Chords & Tabs

Alkaline Trio Chords & Tabs

Version: 1 Type: Chords 0 ratings
1 star 2 stars 3 stars 4 stars 5 stars
comments

Keep Em Coming Chords

-----------------------------------------------------------------------
Keep ‘Em Coming –Alkaline Trio
-----------------------------------------------------------------------

Intro/Verse(2x):

e|--------------------------------------------------------------------------------------------|
B|--------------------------------------------------------------------------------------------|
G|-9-9-9-9-9-9--7-7-7-7-7-7-7--6-6-6-6-6-6-6-6-6--7-7-7-7-7-7-7-7-7----|
D|-7-7-7-7-7-7--7-7-7-7-7-7-7--7-7-7-7-7-7-7-7-7--X-X-X-X-X-X-X-X-X----
A|----------------------------------------------------------------5-5-5-5-5-5-5-5-5----|
E|---------------------------------------------------------------------------------------------
[ Tab from: http://www.guitartabs.cc/tabs/a/alkaline_trio/keep_em_coming_crd.html ]
End of Verse:
e|-------------------------------------------------------------------------------------------|
B|-------------------------------------------------------------------------------------------|
G|-9-9-9-9-9-9-9-9-9-9--11-11-11-11--5-5-5-5-5-5-5-5-5-5---------------|
D|-X-X-X-X-X-X-X-X-X-X--X---X---X---X---5-5-5-5-5-5-5-5-5-5-------------- |
A|-7-7-7-7-7-7-7-7-7-7--9---9---9---9---7-7-7-7-7-7-7-7-7-7---------------|
E|-------------------------------------------------------------------------------------------

Chorus(6x):
e|---------------------------------------------------------------------------------------|
B|---------------------------------------------------------------------------------------|
G|-9-9-9-9-9-9-9-9-9-9-9-9--7-7-7-7-7-7-7-7-7-7-7-7--------------------|
D|-9-9-9-9-9-9-9-9-9-9-9-9--7-7-7-7-7-7-7-7-7-7-7-7--------------------|
A|-7-7-7-7-7-7-7-7-7-7-7-7--5-5-5-5-5-5-5-5-5-5-5-5--------------------|
E|----------------------------------------------------------------------------------------

Listen to the song to figure out the tempo and crap like that.
e-mail me if you got questions- Tdp633@hotmail.com
Comments