Alkaline Trio - I Lied My Face Off Chords & Tabs

 

I Lied My Face Off Chords & Tabs

Alkaline Trio Chords & Tabs

Version: 2 Type: Bass Tab

I Lied My Face Off Bass Tab

   
Alkaline Trio - I Lied My Face Off

Intro / Pre verse

G|-------------------------------------------------------|
D|-------------------------------------------------------|
A|-777799991010101010101010----10-9-7----9-10-9----------|
E|--------------------------88--------77-----------------|
 
10's as in ten rather that 1st open 1st etc.

Think he only plays this the first time after the 1 chorus then plays it as the verse.

Verse

G|-------------------------------------------------------|
D|-------------------------------------------------------|
A|-777799991010101010101010------------------------------|
E|-------------------------8888888877777777--------------|

I think thats how he plays it but I drop the E F* G like below

G|-------------------------------------------------------|
D|-------------------------------------------------------|
A|-----------------3333333322222222----------------------|
E|-0000222233333333--------------------------------------|

Chorus
[ Tab from: http://www.guitartabs.cc/tabs/a/alkaline_trio/i_lied_my_face_off_btab_ver_2.html ]
G|-------------------------------------------------------|
D|-------------------------------------------------------|
A|----------2222222233333332-----------------------------|
E|-000000000----------------33332222---------------------|

Bridge 1

G|-------------------------------------------------------|
D|-------------------------------------------------------|
A|-----------22--------3p2h3-----------------------------|
E|-00----------------------------------------------------|

Break down

G|-------------------------------------------------------|
D|-------------------------------------------------------|
A|-77777777--------3333333355555555----------------------|
E|---------77777777--------------------------------------|

Outro

G|-------------------------------------------------------|
D|-------------------------------------------------------|
A|----------222222223333333332---------------------------|
E|-000000000------------------3----2----0----------------|



Layout
Intro X2
Verse X4
Chorus X4
Bridge 1 X1
Intro/Preverse X1
Verse X5
Chorus X4
Break Down X10
Chorus X1 
Outro X1

Delayed end is on a E

============================================================================
| /  slide up
| \  slide down
| h  hammer-on
| p  pull-off
| ~  vibrato
| +  harmonic
| x  Mute note
============================================================================