Alkaline Trio - For Your Lungs Only Chords & Tabs

 

For Your Lungs Only Chords & Tabs

Alkaline Trio Chords & Tabs

Version: 1 Type: Tab 0 ratings
1 star 2 stars 3 stars 4 stars 5 stars
comments

For Your Lungs Only Tab

UG doesn't have this tab!  Why not?  No one knows.  Anyway, this isn't my personal tab, 
it is correct nonetheless.  Enjoy.


Intro

e----------------------------------------------------------------------|
B----------------------------------------------------------------------|
G----------------------------------------------------------------------|
D----2--7--5--3--2--3--2--2--7--9--10--9--7--2--7--5--3--2--3--2--2--3-|
A----0--let it ring out---0------------------0--------------------0--3-|
E--------------------------------------------------------------------1-|

Verse

e--------------------------------------------|
B--------------------------------------------|
G--------------------------------------------|
D-------7--------5---------5-------3---------|
A-------7--------3---------5-------3---------|
E-------5--------x---------3-------1---------|

Chorus
[ Tab from: http://www.guitartabs.cc/tabs/a/alkaline_trio/for_your_lungs_only_tab.html ]
e------------------------------------------------------------------|
B------------------------------------------------------------------|
G------------------------------------------------------------------|
D-----7--------5------5-----7-----5-----7------7-----5-----5-----3-|
A-----7--------3------5-----7-----3-----7------7-----3-----5-----3-|
E-----5--------x------3-----5-----x-----5------5-----x-----3-----1-|

Outro

e-----------------------------------------------------------------------------------|
B-----------------------------------------------------------------------------------|
G----------------12-------------------14----------------------12-----10-----9-----7-|
D----7-----5-----x--------7-----5-----x-----------7-----5-----x------x------x-----x-|
A----7-----3-----10-------7-----3-----12----------7-----3-----10-----8------7-----5-|
E----5-----x--------------5-----x-----------------5-----x---------------------------|

e-------------------------------------------------------------------------------------------------|
B-------------------------------------------------------------------------------------------------|
G----------------12--------------------14----------------------12-----10-----9-----7-----5-----4--|
D----7-----5-----x---------7-----5-----x-----------7-----5-----x------x------x-----x-----3-----3--|
A----7-----3-----10--------7-----3-----12----------7-----3-----10-----8------7-----5-----3-----2--|
E----5-----x---------------5-----x-----------------5-----x----------------------------------------|
Comments