Alkaline Trio - Fall Victim Chords & Tabs

 

Fall Victim Chords & Tabs

Alkaline Trio Chords & Tabs

Version: 1 Type: Bass Tab

Fall Victim Bass Tab

   
Intro x2
G|-----------------------------------------------------------------|
D|-----------------------------------------------------------------|
A|-------------------------------------------------5-5-5-5-5-5-5-5-|
E|-5-5-5-5-5-5-5-5-5-5-5-5-5-5-5-5-2-2-2-2-2-2-2-2-----------------|

Verse x2 (Wait until after, “Cutting like a red hot knife……”)
G|----------------------------------------------------------------|
D|----------------------------------------------------------------|
A|--------------------------------5-5-5-5-5-5-5-5-5-5-5-5-5-5-5-5-|
E|-2-2-2-2-2-2-2-2-5-5-5-5-5-5-5-5--------------------------------|

Verse cont. (Last time through ONLY!)
G|---------------------------------|
D|---------------------------------|
A|-7-7-7-7-7-7-7-7-5-5-5-5-5-5-5-5-|
E|---------------------------------|

Chorus x2
G|------------------|
D|------------------|
A|-------------5~~~-|
E|-5~~~~~~~2~~~-----|

Intro x2
G|----------------------------------------------------------------|
D|----------------------------------------------------------------|
A|------------------------------------------------5-5-5-5-5-5-5-5-|
E|-5-5-5-5-5-5-5-5-5-5-5-5-5-5-5-5-2-2-2-2-2-2-2-2----------------|

Post-Chorus x2
G|------------------|
D|------------------|
A|---------5~~~~~~~-|
E|-2~~~5~~~---------|
[ Tab from: http://www.guitartabs.cc/tabs/a/alkaline_trio/fall_victim_btab.html ]
Verse x4
G|-----------------------------------------------------------------|
D|-----------------------------------------------------------------|
A|---------------------------------5-5-5-5-5-5-5-5-5-5-5-5-5-5-5-5-|
E|-2-2-2-2-2-2-2-2-5-5-5-5-5-5-5-5---------------------------------|

Verse cont. (Last time through ONLY!)
G|---------------------------------|
D|---------------------------------|
A|-7-7-7-7-7-7-7-7-5-5-5-5-5-5-5-5-|
E|---------------------------------|

Chorus x2
G|------------------|
D|------------------|
A|-------------5~~~-|
E|-5~~~~~~~2~~~-----|

Intro x2
G|-----------------------------------------------------------------|
D|-----------------------------------------------------------------|
A|-------------------------------------------------5-5-5-5-5-5-5-5-|
E|-5-5-5-5-5-5-5-5-5-5-5-5-5-5-5-5-2-2-2-2-2-2-2-2-----------------|

Post-Chorus x2
G|------------------|
D|------------------|
A|---------5~~~~~~~-|
E|-2~~~5~~~---------|

Bridge x2
G|-----------------------------------------------------------------|
D|-----------------------------------------------------------------|
A|---------------------------------5-5-5-5-5-5-5-5-5-5-5-5-5-5-5-5-|
E|-2-2-2-2-2-2-2-2-5-5-5-5-5-5-5-5---------------------------------|

Intro x4
G|----------------------------------------------------------------|
D|----------------------------------------------------------------|
A|------------------------------------------------5-5-5-5-5-5-5-5-|
E|-5-5-5-5-5-5-5-5-5-5-5-5-5-5-5-5-2-2-2-2-2-2-2-2----------------|

Post-Chorus x1
G|------------------|
D|------------------|
A|---------5~~~~~~~-|
E|-2~~~5~~~---------|