Alkaline Trio - Enjoy Your Day Chords & Tabs

 

Enjoy Your Day Chords & Tabs

Alkaline Trio Chords & Tabs

Version: 1 Type: Tab 0 ratings
1 star 2 stars 3 stars 4 stars 5 stars
comments

Enjoy Your Day Tab

   
-------------------------------------------------------------------------------
			     Enjoy Your Day - Alkaline Trio
-------------------------------------------------------------------------------
Tabbed by: Neil Woods
Email: letdownforever@yahoo.co.uk

Tuning: Normal

This is correct. However, considering virtually every song Alkaline Trio 
Have ever done is in E and this is in C, it may be wrong. If you can't
Find the rhythm and where to play what from listening to the song then
You don't deserve to be able to play it. Great song. Very easy.

Intro
e|---------------------------------------------------------------------------|
B|---------------------------------------------------------------------------|
G|-------------9---------------------9------------------0---------------0----|
D|-------10---------12-10------10---------12-10-----5-------5-------3---3----|
A|----10----10---10---------10----10---10---------5---5---5---5---3---3-3----|
E|--8---------------------7---------------------3---------------1-------1----|
[ Tab from: http://www.guitartabs.cc/tabs/a/alkaline_trio/enjoy_your_day_tab.html ]
Verses
e|---------------------------------------------------------------------------|
B|---------------------------------------------------------------------------|
G|--9-------9---------------0------------------------------------------------|
D|--10------10------5-------3------------------------------------------------|
A|--10------10------5-------3------------------------------------------------|
E|--8-------7-------3-------1------------------------------------------------|

Other part (after verses)
e|---------------------------------------------------------------------------|
B|---------------------------------------------------------------------------|
G|--5-------7-------9-------10-----------------------------------------------|
D|--5-------7-------9-------10-----------------------------------------------|
A|--3-------5-------7-------8------------------------------------------------|
E|--3-------5-------7-------8------------------------------------------------|



| /  slide up
| \  slide down
| h  hammer-on
| p  pull-off
| ~  vibrato
| +  harmonic
| x  Mute note
===============================================================================
Comments