Alkaline Trio - Donner Party All Night Long Chords & Tabs

 

Donner Party All Night Long Chords & Tabs

Alkaline Trio Chords & Tabs

Version: 2 Type: Tab 0 ratings
1 star 2 stars 3 stars 4 stars 5 stars
comments

Donner Party All Night Long Tab

   
-----------------------------------------------------------------------------
                Donner Party(All Night Long) - Alkaline Trio
-------------------------------------------------------------------------------
Tabbed by:Bobblefots143
Email:Tophatatckocelot@netscape.net
This is my first tab, but im sure this is 100% correct.
Feel free to email me about any comments and such.


These are the basic finger positionings and rythms.  Listen to the song to figure them out better.

Tuning:Standard

| /  slide up
| \  slide down
| h  hammer-on
| p  pull-off
| ~  vibrato
| +  harmonic
| x  Mute note
[ Tab from: http://www.guitartabs.cc/tabs/a/alkaline_trio/donner_party_all_night_long_tab_ver_2.html ]
 Intro/verse 1
e|------------------------------------|
B|------------------------------------|
G|11-11-11-11---------7-7-7-7-7-7-7-7-|
D|11-11-11-11-7-7-7-7-7-7-7-7-7-7-7-7-|
A|9--9--9--9--7-7-7-7-5-5-5-5-5-5-5-5-|
E|------------5-5-5-5-----------------|
 
  Chorus
e|------------------------------------------------------------|
B|------------------------------------------------------------|
G|------------------------------------------------6-6-6-6-6-6-|
D|7-7-7-7-7-7-7-7-7-7-7-7-7-7-7-7-7-7-7-7-7-7-7-7-6-6-6-6-6-6-|
A|7-7-7-7-7-7-7-7-7-7-7-7-7-7-7-7-7-7-7-7-7-7-7-7-4-4-4-4-4-4-|
E|5-5-5-5-5-5-5-5-5-5-5-5-5-5-5-5-5-5-5-5-5-5-5-5-------------|
  
e|---------------------------|
B|---------------------------|
G|/11-11-11-11-9-9-9-9-9-9-9-|
D|/11-11-11-11-9-9-9-9-9-9-9-|
A|/9--9--9--9--7-7-7-7-7-7-7-|
E|---------------------------|

  Chorus Ending1
e|---------------------------|
B|---------------------------|
G|7-7-77-7-77-7-9\-----------|
D|7-7-77-7-77-7-9\-----------|
A|5-5-55-5-55-5-7\-----------|
E|---------------------------|

  Verse 2
e|------------------------------------|
B|------------------------------------|
G|11~-----------------7~--------------|
D|11~---------7~------7~--------------|
A|9-~---------7~------5~--------------|
E|------------5~----------------------|

  Bridge 1
e|--------------|
B|--------------|
G|7---6---------|
D|7---7---7---7-|
A|5---5---7---7-|
E|--------5---5-|
  
  Bridge 2
e|--------------------|
B|--------------------|
G|77-7-6-66-----------|
D|77-7-7-77-77-7-7-77-|
A|55-5-5-55-77-7-7-77-|
E|----------55-5-5-55-|
  
  Chorus Ending 2
e|-----------------------------------|
B|-----------------------------------|
G|7-7-7-7-7-7-7-7-7-7-7-7-9~---------|
D|7-7-7-7-7-7-7-7-7-7-7-7-9~------7~-|
A|5-5-5-5-5-5-5-5-5-5-5-5-7~------7~-|
E|--------------------------------5~-|


Song Order
Intro/Verse1 10x
Chorus 2x
Chorus Ending1 1x
Intro/Verse1 2x
Verse2 4x
Chorus 2x
Chorus Ending1 1x
Bridge 1 2x
Bridge 2 4x
Chorus 2x
Chorus Ending2 1x
===============================================================================
Comments