Alkaline Trio - Death Bed Chords & Tabs

 

Death Bed Chords & Tabs

Alkaline Trio Chords & Tabs

Version: 1 Type: Tab 0 ratings
1 star 2 stars 3 stars 4 stars 5 stars
comments

Death Bed Tab

ALKALINE TRIO
DEATH BED
CRIMSON

This is off their new album due may 24th, this song is so good, i can't take
credit for this tab though, my friend James did all the work.

INTRO
e-----------------------------------------|
b-----------------------------------------|
g-10-10-------------10-11-11-11-11--------|
d---------11-11-88-----11-11-11-11--------|
a-----------------------------------------|
e-----------------------------------------|


verse #1 -

e-----------------------------------------------------------------|
b-----------------------------------------------------------------|
g----1111-66-88-----1111-66--------1111-66-88---------------------|
d-88-1111-66-88--88-1111-66-66--88-1111-66-88--10101011111110-----|
a-88-9-9--44-66--88-9-9--44-66--88-9-9--44-66--8-8-8-8-8-8-8------|
e-66-------------66---------44--66--------------------------------|
[ Tab from: http://www.guitartabs.cc/tabs/a/alkaline_trio/death_bed_tab.html ]
chorus -
  (i)                                 (ii)
e---------------------------------|----------------------------------------|
b---------------------------------|----------------------------------------|
g-11111111111111---------66666666-|-1111111111111111-6666666---------------|
d-11111110101111-8888888-66666666-|-1111111010111111-6666666-66666666------|
a-9-9-9-9-9-9-9--8888888-44444444-|-9-9-9-9-9-9-9-9--4444444-66666666------|
e----------------6666666----------|--------------------------44444444------|

repeat (i)
then end of chorus is -

e---------------------------------------------------|
b---------------------------------------------------|
g-1111111111111111----------------------------------|
d-1111111010111111-33333333-44444444-66666666-------|
a-9-9-9-9-9-9-9-9--33333333-44444444-66666666-------|
e------------------11111111-22222222-44444444-------|

breakdown -

e---------------------------------------------|----------------------------------|
b---------------------------------------------|----------------------------------|
g-666-8-6-5-6-666-8-6-5-6-6666666-8888888-----|-8888888--------------------------|
d---------------------------------------------|-8888888-4444444-6666666----------|
a---------------------------------------------|-6666666-4444444-6666666----------|
e---------------------------------------------|-6666666-2222222-4444444----------|

CHORUS

for any corrections email me at e_mericana@hotmail.com
Comments