Alkaline Trio - Cooking Wine Chords & Tabs

 

Cooking Wine Chords & Tabs

Alkaline Trio Chords & Tabs

Version: 2 Type: Bass Tab 0 ratings
1 star 2 stars 3 stars 4 stars 5 stars
comments

Cooking Wine Bass Tab

   
Artist:Alkaline Trio
Song:Cooking Wine
Album:S/T
Tabbed By:rancidbass220
tuning:standard

ok i've seen about 3 tabs of this song and they are all wrong so i decided to make
a tab of the song. listen to the song for timing on the slides and shit.

Intro/Verse 2

E|-------------3--------------------2222-23333------------3--------|
A|--------0000--5--5/7\5-------0000------------------0000--5-5/7\5-|
D|-0-2-4---------5-------0-2-4-----------------0-2-4--------5------|
G|-----------------------------------------------------------------|

E|-----------222-2333-|
A|------0000----------|
D|0-2-4---------------|
G|--------------------|

Verse 1
A|-5-|
[ Tab from: http://www.guitartabs.cc/tabs/a/alkaline_trio/cooking_wine_btab_ver_2.html ]
Chours
E|-3333333333-----------------------------00000-33333333333------------|
A|------------5555-77777------------55555-77777-------------5555-77777-|
D|------------7777-99999-555-55555--77777-------------------7777-99999-|
G|-----------------------7777777777------------------------------------|

Chours End 1
E|----------------------|
A|----------------------|
D|-555-55555-555-55555--|
G|-77777777777777777777-|

chours end 2
E|-------------------------------------------------|
A|-------------------------------------------------|
D|-5555555555-5555-5555-55-5555555555-5555-5555-55-|
G|-7777777777-7777-7777-77-7777777777-7777-7777-77-|

end riff
E|-----------3-------------------222-33-55-2---|
A|------0000--5-5/7\5-------0000-------------5-|
D|0-2-4--------5------0-2-4--------------------|
G|---------------------------------------------|


Order:
Intro         x1
Verse 1       x1
>Intro        x1
Chours        x1
Chours End 1  x1
First half of intro only!!!
Verse 2       x1
Chours        x1
Chours End 2  x1
First half of intro only!!!
End Riff      x1

Thats All! hope you enjoy this song.oh and also, the intro with the > you slide into
from somewhere arround A|-11-|. Remember Alk3 rocks!!
Comments