Alkaline Trio - Burn Chords & Tabs

 

Burn Chords & Tabs

Alkaline Trio Chords & Tabs

Version: 1 Type: Bass Tab 0 ratings
1 star 2 stars 3 stars 4 stars 5 stars
comments

Burn Bass Tab

Ultimate-Guitar doesn't have a bass tab for this, so this is simply hunted down.
Not my tab, still correct.  Thanks to original tabber, my bassist needed this!


Band: Alkaline Trio
Song: Burn
Album: Crimson (Track 3)
Tabber: Bobby Groesbeck

This is an awesome song, one of the best on the album. This album is a huge step for
the band in my opinion. Enjoy!
P.s. Dan Andriano is amazing


Intro: Guitar only

Verse (Slide on only on first verse) 2x
G| ------------------------------------------------------------------ |
D| ------------------------------------------------------------------ |
A| ------------------------------------------------------------------ |
E| --12\\-44-p-22-h-44-p-2-h-4-p-2h-4p-2-h4-p-2--22x2222-00x0000-0-0- |

G| ----------------------------------------------------------------------------------- |
D| ----------------------------------------------------------------------------------- |
A| ----------------------------------------------------66x6666-77x7777-7-7------------ |
E| --44-p-22-h-44-p-2-h-4-p-2h-4p-2-h4-p-2-------------------------------------------- |

Pre Chorus 2x
G| ------------------------------------------------------ |
D| ------------------------------------------------------ |
A| ------------------------------------------------------ |
E| --44-p-22-h-44-p-2-h-4-p-2h-4p-2-h4-p-2--------------- |

Chorus (Listen for rhythm)
G| --------------------------------------------------------- |
D| --------------------------------------------------------- |
A| --------------------------------------------------------- | 3x
E| --0000000000000000-444444-2222222222--------------------- |
[ Tab from: http://www.guitartabs.cc/tabs/a/alkaline_trio/burn_btab.html ]
G| -------------------------------------------------------- |
D| -------------------------------------------------------- |
A| -------------------------------------------------------- |
E| --0000000000000000-22222222-33333333-------------------- |

Post Chorus
G| ------------------------------------------------------- |
D| ------------------------------------------------------- |
A| ------------------------------------------------------- | 3x
E| --44-p-22-h-44-p-2-h-4-p-2h-4p-2-h4-p-2---------------- |

G| ---------------------- |
D| ---------------------- |
A| --66x-66x-77~--------- |
E| ---------------------- |

Verse 2x

Pre Chorus

Chorus

Bridge: Piano only

Chorus

Outro (Listen for rhythm)
G| ----------------------------------------- |
D| ----------------------------------------- |
A| ----------------------------------------- |
E| --4-444--7-777-0-0000--2-222------------- |

G| --------------------------------- |
D| --------------------------------- |
A| --------------------------------- |
E| --4-444--7-777-0-0000~----------- |

G| ----------------------------------------- |
D| ----------------------------------------- |
A| ----------------------------------------- |
E| --4-444--7-777-0-0000"2-222------------ |

G| -------------------------------------------------------------- |
D| -------------------------------------------------------------- |
A| -------------------------------------------------------------- |
E| --00000000"22222222"00000000--2222-3333------------------- |

G| ------------------------------------------------------ |
D| ------------------------------------------------------ |
A| ------------------------------------------------------ | | Play until end
E| --44-p-22-h-44-p-2-h-4-p-2h-4p-2-h4-p-2--------------- |
Comments