Alkaline Trio - Back To Hell Chords & Tabs

 

Back To Hell Chords & Tabs

Alkaline Trio Chords & Tabs

Version: 2 Type: Tab

Back To Hell Tab

   
Back To Hell by the Alkaline Trio

I saw another tab on here that was totally wrong, so i've made a few adjustments, hope you like!

The strumming hasn't been added, but it's not that hard to work out.

Credit to e_mericana for the Intro.

Intro (Not sure about this, you'll have to improvise)
e------------------------------------------------------|
b------------------------------------------------------|
g--14-13-16-14-13-14-13----14-13-16-14-13-14-13-9-6-7--|
d---x--x--x--x--x--x--x-11--x--x--x--x--x--x--x-x-x-x--|
a--12-11-14-12-11-12-11--x-12-11-14-12-11-12-11-7-4-5--|
e------------------------9-----------------------------|


Pre-Verse
e-----------------------------------------|
b-----------------------------------------|
g--6-7------------------------------------|
d--x-x------------------------------------| x4 
a--4-5------------------------------------|
e-----------------------------------------|


Verse (Like the pills in your hand...)
e----------------------------------------------|
b----------------------------------------------|
g------------------7-9--------7-9--------------|
d--4-----2-4-----2-7-9--4-----7-9--------------|
a--4-----2-4-----2-5-7--4-----5-7--------------|
e--2-----0-2-----0------2----------------------|


Pre-Verse
e-----------------------------------------|
b-----------------------------------------|
g--6-7------------------------------------|
d--x-x------------------------------------| x4 
a--4-5------------------------------------|
e-----------------------------------------|


Verse (In the palm of your hand...)
e----------------------------------------------|
b----------------------------------------------|
g------------------7-9--------7-9--------------|
d--4-----2-4-----2-7-9--4-----7-9--------------|
a--4-----2-4-----2-5-7--4-----5-7--------------|
e--2-----0-2-----0------2----------------------|


Pre-Verse
e-----------------------------------------|
b-----------------------------------------|
g--6-7------------------------------------|
d--x-x------------------------------------| x4 
a--4-5------------------------------------|
e-----------------------------------------|

[ Tab from: http://www.guitartabs.cc/tabs/a/alkaline_trio/back_to_hell_tab_ver_2.html ]
Chorus (Just send us back to hell...)
e-----------------------------------------|
b-----------------------------------------|
g-----7-----9-----------------------------|
d--4--7--7--9-----------------------------| x2
a--4--5--7--7-----------------------------|
e--2-----5--------------------------------|


Verse (Like the pills in your hand...)
e-----------------------------------------|
b-----------------------------------------|
g-----------------------------------------|
d--4--------------------------------------|
a--4---(Let ring)-------------------------|
e--2--------------------------------------|


Pre-Verse
e-----------------------------------------|
b-----------------------------------------|
g--6-7------------------------------------|
d--x-x------------------------------------| x4 
a--4-5------------------------------------|
e-----------------------------------------|


Chorus (Just send us back to hell...)
e-----------------------------------------|
b-----------------------------------------|
g-----7-----9-----------------------------|
d--4--7--7--9-----------------------------| x2
a--4--5--7--7-----------------------------|
e--2-----5--------------------------------|


Bridge                     
e---------------------|
b---------------------|
g-6-7-6-7-6-7-13-14-13|
d-X-X-X-X-X-X--X--X--X|
a-4-5-4-5-4-5-11-12-11|
e---------------------|

e---------------------|---------|
b---------------------|---------|
g-6-7-6-7-6-7-13-14-13|-14-13-11|
d-X-X-X-X-X-X--X--X--X|--x--x--x|
a-4-5-4-5-4-5-11-12-11|-12-11--9|
e---------------------|---------|

e---------------------|
b---------------------|
g-6-7-6-7-6-7--6------|
d-X-X-X-X-X-X--X------|
a-4-5-4-5-4-5--4------|
e---------------------|

Chorus (Just send us back to hell...)
e-----------------------------------------|
b-----------------------------------------|
g-----7-----9-----------------------------|
d--4--7--7--9-----------------------------| x2
a--4--5--7--7-----------------------------|
e--2-----5--------------------------------|

Outro
e---------------------|
b---------------------|
g-6-7-6-7-6-7--6------|
d-X-X-X-X-X-X--X------|
a-4-5-4-5-4-5--4------|
e---------------------|