Alkaline Trio - Back To Hell Chords & Tabs

 

Back To Hell Chords & Tabs

Alkaline Trio Chords & Tabs

Version: 1 Type: Tab 0 ratings
1 star 2 stars 3 stars 4 stars 5 stars
comments

Back To Hell Tab

ALKALINE TRIO
BACK TO HELL
CRIMSON

This is off their new album due out may 24th

INTRO
e------------------------------------------------------|
b------------------------------------------------------|
g--14-13-16-14-13-14-13----14-13-16-14-13-14-13-9-6-7--|
d---x--x--x--x--x--x--x-11--x--x--x--x--x--x--x-x-x-x--|
a--12-11-14-12-11-12-11--x-12-11-14-12-11-12-11-7-4-5--|
e------------------------9-----------------------------|

PRE VERSE

e-----------------------------------------|
b-----------------------------------------|
g--6-7------------------------------------|
d--x-x------------------------------------| x 4 
a--4-5------------------------------------|
e-----------------------------------------|
[ Tab from: http://www.guitartabs.cc/tabs/a/alkaline_trio/back_to_hell_tab.html ]
VERSE
e-----------------------------------------|
b-----------------------------------------|
g--------7--------7-----------------------|
d--4--4--7--2--4--7--2--------------------|
a--4--4--5--2--4--5--2--------------------|
e--2--2-----0--2-----0--------------------|

PRE VERSE

VERSE

PRE VERSE

CHORUS
e-----------------------------------------|
b-----------------------------------------|
g-----7-----------------------------------|
d--4--7--7--2-----------------------------| x 2
a--4--5--7--2-----------------------------|
e--2-----5--0-----------------------------|

PRE VERSE

CHORUS

BRIDGE
         (i)              (ii)   (iii) (iv)
e---------------------|---------|----|------|
b---------------------|---------|----|------|
g-6-7-6-7-6-7-13-14-16|-14-13-11|-6-7|--6---|
d-X-X-X-X-X-X--X--X--X|--x--x--x|-x-x|--x---|
a-4-5-4-5-4-5-11-12-14|-12-11--9|-4-5|--4---|
e---------------------|---------|----|------|

PLAY (i)x 2 (ii)x1 (iii) x 4 (iv)x1

CHORUS

PRE VERSE

it looks really confusing but after a few listens it should make sense, just
work out the strumming pattern by ear. for corrections email me at 
e_mericana@hotmail.com
Comments