Alison Krauss - Baby Mine Chords & Tabs

 

Baby Mine Chords & Tabs

Alison Krauss Chords & Tabs

Version: 1 Type: Tab 0 ratings
1 star 2 stars 3 stars 4 stars 5 stars
comments

Baby Mine Tab

   
Artist: Alison Krauss
Song: Baby of Mine
Tabber: Samuel Scheideman
Comments: I've never done a song like this before.
Please take this tab with a grain of salt arpeggios some times change a little.
The second guitar I'm not completely sure on its exact positions relative to the first guitar
so play it by feel for timing and where it should be played also the first guitar
it self is not perfect just use the tab as a general feel for it. 
Tuning: Standard
E-mail addy: klayfeather@hotmail.com

Intro: 
Guitar 1
        B           B          C#m         C#m
E-------2-----------2-----------4-----------4------
B-----4---4-------4---4-------5---5-------5---5----
G---4-------4---4-------4---6-------6---6-------6--
D-4-----------4-----------6-----------6------------
A--------------------------------------------------
E--------------------------------------------------
|Guitar 2
E-------2-----------------------4------------------
B-4-----------4----4--/5--4--2---------------------
G---------------------/6---------------------------
D--------------------------------------------------
A--------------------------------------------------
E--------------------------------------------------

Intro: continued
Guitar 1
        B           B          C#m         C#m
E-------2-----------2-----------4-----------4------
B-----4---4-------4---4-------5---5-------5---5----
G---4-------4---4-------4---6-------6---6-------6--
D-4-----------4-----------6-----------6------------
A--------------------------------------------------
E--------------------------------------------------
|Guitar 2
E-------2-----------------------4------------4--2--0----
B-4-----------4----4--/5--4--2--------------------------
G---------------------/6--------------------------------
D-------------------------------------------------------
A-------------------------------------------------------
E-------------------------------------------------------


Verse: Play the is part twice
        B           B          C#m         C#m
E-------2-----------2-----------4-----------4--------
B-----4---4-------4---4-------5---5-------5---5------
G---4-------4---4-------4---6-------6---6-------6----
D-4-----------4-----------6-----------6-----------6--
A----------------------------------------------------
E----------------------------------------------------
|Guitar 2
E-------2-----------2-----------4-----------4----------
B------------------------------------------------------
G------------------------------------------------------
D------------------------------------------------------
A------------------------------------------------------
E------------------------------------------------------
[ Tab from: http://www.guitartabs.cc/tabs/a/alison_krauss/baby_mine_tab.html ]
Verse: End on this
        E           E          C#m         F#m          B
E-------7-----------7-----------4-----------------------2------
B-----9---9-------9---9-------5---5---------2---------4---4----
G---9-------9---9-------9---6-------6-----3---3-----4-------4--
D-9-----------9-----------6-------------4-------4-4------------
A-------------------------------------4------------------------
E----------------------------------------------------------------
|Guitar 2
E----------------------------------------------------------------
B--------------------------7--5--4--2--2--/5------------2--------
G---------------------------------------------3---3--4-----4-----
D----------------------------------------------------------------
A----------------------------------------------------------------
E----------------------------------------------------------------

Verse 2 rhythm pretty much the same as Verse 1
Verse 2 fills: Guitar 2
0:52seconds      1:01seconds         1:13seconds
E---------------|-----------------|---------------------------
B---------------|---------5-7/9---|------9--12----------------
G--4/6--6-4-3---|---6-8-----------|--/11----------------------
D---------------|-----------------|---------------------------
A---------------|-----------------|---------------------------
E---------------|-----------------|---------------------------

Chorus thingy: That's roughly how she goes. 
Rhythm: Guitar 1
    If they knew....                  They'd end.....
  G#m  B           E Eb G#m   B           E  Eb
E------------------7-6--------------------7--6--
B------------------9-8--------------------9--8--
G----4----8-----8--9-8------4----8-----8--9--8--
D---6----9-9---9---9-8-----6----9-9---9---9--8--
A--6----9---9-9----7-6----6----9---9-9----7--6--
E-4----7-----7-----------4----7-----7-----------
| Guitar 2
E----------------------------------------------------------
B----------------------------------------------------------
G-----------------------------------------------8--8-h9p8--
D----------------------------------------------------------
A----------------------------------------------------------
E----------------------------------------------------------

Chorus continued: Use the arpeggios and strums where necessary cause
I'm just to tired to type them all out. 
All those same people who scolded you, what they'd give just for the right to hold you
  G#m                  Ebm        G#m F#m   C#m             Ebm     C#m F#7
E-4---------------------6---------(4)-(2)---(4)--------------6-------4---2--
B-4---------------------7---------(4)-(2)----5---------------7-------5---2--
G-4---------------------8----------4---3-----6---------------8-------6---1--
D-6---------------------8----------6---4-----6---------------8-------6---2--
A-6---------------------6----------6---4-----4---------------6-------4---4--
E-4--------------------------------4---2---------------------------------2--

Guitar 2 in-between chorus and verse
E--2------
B----4----
G------4--
D---------
A---------
E---------

Interlude: Guitar two, Repeat as much as necessary. First guitar just do arpeggios I believe. 
    E
E--------7---------7--------7--------7--
B---------------------------------------
G--9---------9--------9---------9-------
D-----9---------9--------9---------9----
A---------------------------------------
E---------------------------------------

Chorus:
All those same people who scolded you, what they'd give just for the right to hold you
  G#m                  Ebm        G#m F#m   C#m             Ebm     C#m F#7
E-4---------------------6---------(4)-(2)---(4)--------------6-------4---2--
B-4---------------------7---------(4)-(2)----5---------------7-------5---2--
G-4---------------------8----------4---3-----6---------------8-------6---1--
D-6---------------------8----------6---4-----6---------------8-------6---2--
A-6---------------------6----------6---4-----4---------------6-------4---4--
E-4--------------------------------4---2---------------------------------2--


Guitar 2 in-between chorus and verse
E--2------
B----4----
G------4--
D---------
A---------
E---------

Verse 3 rhythm pretty much the same as Verse 1
Comments